Log in

One click and you are in

Login with Facebook Login with Google

Why sign up and log in

Guitar Tabs Explorer
Pity Party (girls Club) bass tabs for I hope that u think of me

I Hope That U Think Of Me bass tab by Pity Party (girls Club)

Pity Party (girls Club) bass tabs for I hope that u think of me

Bass tabs

Tuning: Standard (E A D G)


Intro:

E|-------------------------------------------------------------------------| x1
A|-------------------------------------------------------------------------|
D|-----/8--8-6-----/8--8-6-----/8--8-6-----/8--8-6-----/8--8-6-----/8--8-6-|
G|-4-x---------4-x---------4-x---------4-x---------6-x---------6-x---------|

E|-------------------------------------------------------------------------------------------------| x1
A|-------------------------------------------------------------------------------------------------|
D|-----/8--8-6-----/8--8-6-----/8--8-6-----/8--8-6-----/8--8-6-----/8--8-6-----/8--8-6-----/8--8-6-|
G|-4-x---------4-x---------4-x---------4-x---------6-x---------6-x---------4-x---------4-x---------|
Chorus:

"I hope that you think of me baby..."
E|-------------------------------------------------------------------------------------------------| x2
A|-------------------------------------------------------------------------------------------------|
D|-----/8--8-6-----/8--8-6-----/8--8-6-----/8--8-6-----/8--8-6-----/8--8-6-----/8--8-6-----/8--8-6-|
G|-4-x---------4-x---------4-x---------4-x---------6-x---------6-x---------4-x---------4-x---------|


Bridge:

"Tell me that it's easy to be..."
E|-------------------------------------------------------------------------------------------------| x1
A|-------------------------------------------------------------------------------------------------|
D|-----/8--8-6-----/8--8-6-----/8--8-6-----/8--8-6-----/8--8-6-----/8--8-6-----/8--8-6-----/8--8-6-|
G|-4-x---------4-x---------4-x---------4-x---------6-x---------6-x---------4-x---------4-x---------|


Chorus:

"I hope that you think of me baby..."
E|-------------------------------------------------------------------------------------------------| x1
A|-------------------------------------------------------------------------------------------------|
D|-----/8--8-6-----/8--8-6-----/8--8-6-----/8--8-6-----/8--8-6-----/8--8-6-----/8--8-6-----/8--8-6-|
G|-4-x---------4-x---------4-x---------4-x---------6-x---------6-x---------4-x---------4-x---------|

E|---------------------------------------------------------------------------------------------------| x1
A|---------------------------------------------------------------------------------------------------|
D|-----/8--8-6-----/8--8-6-----/8--8-6-----/8--8-6-----/8--8-6-----/8--8-6-----/8--8-6-----/8--8-6---|
G|-4-x---------4-x---------4-x---------4-x---------6-x---------6-x---------4-x---------4-x---------4-|

Almost there ...

Sign in to get your own page with links to favourite songs and more. You are just one click away...

Login with Facebook Login with Google