Log in

One click and you are in

Login with Facebook Login with Google

Why sign up and log in

Guitar Tabs Explorer
Pitty bass tabs for I wanna be

Bass tabs

Verso 1
          4 vezes|
G|-------------------------|
D|-------------------------|
A|-------------------------|
E|-7-7-9-9-10-10-12-12-----|
B|-------------------------|	      3 vezes|

Verso 2
G|-----------------|--------|
D|-----------------|--------|
A|-----------------|--------| 2 vezes
E|-7-7-7----5------|-3------|
B|-----------------|--------|

Refrão (2 vezes)
G|-------------------------|
D|-------------------------|
A|-------------------------|
E|-7-----------7---------7\|
B|-------------------------|

G|-------------------------|
D|-------------------------|
A|-------------------------|
E|-5-5-5-5-5-5-5-5-5-------|
B|-------------------------|

G|-------------------------|
D|-------------------------|
A|-------------------------|
E|-3-3-3-3-3-3-3-3---------|
B|-------------------------|

G|-------------------------|
D|-------------------------|
A|-------------------------|
E|-0-0-0-0-3-3-3-3---------|
B|-------------------------|

Verso 1 / Verso 2 (1 Vez)

Verso 2b (1 vez)
G|-----------------|-----------------|-----------------|
D|-----------------|-----------------|-----------------|
A|-----------------|-----------------|-----------------|
E|-7-7-7----5------|-3-3-3-3-3-3-3-3-|-5-5-5-5-5-5-5-5-|
B|-----------------|-----------------|-----------------|

Refrão 4x


Solo Guitarra
G|-----------------------------|----------------------|
D|-----------------------------|----------------------|
A|-----------------------------|----------------------| 8 vezes
E|-0-/-2-\-0-0-/-2-\-0-0-/-2-\-|0-0-/-2-\-0-/-3-3-5-3-|
B|-----------------------------|----------------------|


Verso 1 (2 Vezes)

Refrão 4 vezes

Almost there ...

Sign in to get your own page with links to favourite songs and more. You are just one click away...

Login with Facebook Login with Google