Log in

One click and you are in

Login with Facebook Login with Google

Why sign up and log in

Guitar Tabs Explorer
Pistones tabs for El pistolero

Guitar tabs with lyrics

MEJOR SI SE TOCA EN DUO, UNO PUNTEADO Y OTRO RRASGUEO


INTRO:
e|---------7-7-7-7-8-7-7---8-7-7------|-------5-5-5-5-7-5-5-5-7-5-5----|
A chord diagramBB|-------8-8-8-8-8-8-8-8-8-8-8-8-8-10-|-------7-7-7-7-7-7-7-7-7-7-7----|
A chord diagramG+G|-----9-----------------9-------9-11-|-----7----------------------7-8-|
A chord diagramD MajorD|---9--------------------------------|---7------------------------8-9-|
A chord diagramA augmentedA|------------------------------------|--------------------------------|
A chord diagramE MajorE|------------------------------------|--------------------------------|

MIm                                          SI7
Soy un hombre muy honrado, que me gusta lo mejor
                                              MIm
Las mujeres no me faltan ni el dinero ni el amor   e|--7/8--7-5--------|
                                                   A chord diagramBB|-----------7-5-6--|
                                                   A chord diagramG+G|------------------|
MIm                                            SI7
Gineteando en mi caballo, por la sierra yo me voy

                                                         MIm
           Las estrellas y la luna, ellas me dicen donde voy
e|--0-5-8-7-|-----0-5-8-7----|-----0-5-8-7------|---0-5-8-7----|
A chord diagramBB|----------|----------------|------------------|--------------|

   LAm                      MIm
   Ay    ,  ay   ,  ay   ,  ay
e|-8-7-6-+-8-7-6-|-6-5-4-+-6-5-4-|
A chord diagramBB|-------+-------|-------+-------|

    SI7                    MIm
    Ay   ,  ay   ,    MI amor
e|-4-3-2-+-4-3-2-|-6-4-3-|-5-4-3-|
A chord diagramBB|-------+-------|-------|-------|

   LAm             MIm   SI7                  MIm
   Ay    mi    morena      de       mi     corazon
e|-8-7-6-+-8-7-6-|-6-5-4-+-6-5-4-|-4-3-2-|-4-3-2---|
A chord diagramBB|-------+-------|-------+-------|-------|-------4-|

(Aca es el intro otra vez)

MIm                                           SI7
Me gusta tocar guitarra, me gusta cantar al sol   (punteados con arrastre)
                                                          MIm
            Mi mariachi me acompaña, cuando canto mi cancion
e|--2/5---2/5---2/5---2/5---2/5---2/5---2/5---2/5--+--2/6--|
A chord diagramBB|--3/6---3/6---3/6---3/6---3/6---3/6---3/6---3/6--+--3/7--|


MIm                                                                  SI7
Me gusta tomar mis copas, e|--7/8--7-5--------| aguardiente es lo mejor
                          A chord diagramBB|-----------7-5-6--|
                          A chord diagramG+G|------------------|
                                               MIm
Tambien el tequila blanca, con su sal le da sabor


   LAm                      MIm
   Ay    ,  ay   ,  ay   ,  ay
e|-8-7-6-+-8-7-6-|-6-5-4-+-6-5-4-|
A chord diagramBB|-------+-------|-------+-------|

    SI7                    MIm
    Ay   ,  ay   ,    MI amor
e|-4-3-2-+-4-3-2-|-6-4-3-|-5-4-3-|
A chord diagramBB|-------+-------|-------|-------|

   LAm             MIm   SI7                  MIm
   Ay    mi    morena      de       mi     corazon
e|-8-7-6-+-8-7-6-|-6-5-4-+-6-5-4-|-4-3-2-|-4-3-2---|
A chord diagramBB|-------+-------|-------+-------|-------|-------4-|


(aca es donde se pone bueno, esto va solo y un poco veloz)

MIm-SI7-MIm-SI7-MIm-SI7-MIm-SI7-MIm-SI7-MIm

SOLO:

e|-----------12----------------11----------------11-----------|
A chord diagramBB|--12----12----12----12----12----12----12----12----12----12--|
A chord diagramG+G|-----11----------11----11----------11----11----------11-----|
A chord diagramD MajorD|------------------------------------------------------------|
A chord diagramA augmentedA|------------------------------------------------------------|
A chord diagramE MajorE|------------------------------------------------------------|


|-------12---------------12----------------11-|
|----12----12----12---12----12----12----12----|
|-11----------11----11---------11----11-------|
|---------------------------------------------|
|---------------------------------------------|
|---------------------------------------------|


|-------------------11----------------12|
|-12----12----12-------12----12----12---|
|----11----11----11-------11----11------|
|---------------------------------------|
|---------------------------------------|
|---------------------------------------|


|----12---12----11--------9-----8----|
|-12----12----12----12------9-----8--|
|----------------------11-----8----7-|
|------------------------------------|
|------------------------------------|
|------------------------------------|

|-7-----6----5-----4----3--------|
|---7-----6----5----4-----3----4-|
|-----6----5-----4----3-----2----|
|--------------------------------|
|--------------------------------|
|--------------------------------|


|---------------------|----------2--|----------3--|
|--0-0-3-2-1----------|--0-0-3-4----|--0-0-3-4----|
|------------3-2-1----|-------------|-------------|
|------------------2--|-------------|-------------|
|---------------------|-------------|-------------|
|---------------------|-------------|-------------|


|----------2-0-3/5-4-2-----|
|--0-0-3-4-------------3-5-|
|--------------------------|
|--------------------------|
|--------------------------|
|--------------------------|

SILENCIO:

Me gusta tocar guitarra, me gusta cantar el sol   e|--5/7-5-3-------|
                                                  A chord diagramBB|----------3/5---|
                                              MIm A chord diagramG+G|----------------|
Mi mariachi me acompaña, cuando canto mi cancion


MIm                                           SI7
Me gusta tomar mis copas, aguardiente es lo mejor
                                               MIm
Tambien el tequila blanca, con su sal le da sabor


LAm          MIm
Ay, ay, ay, ay
SI7           MIm
Ay, ay, mi amor
LA       MIm SOL7        MIm
Ay mi morena de mi corazon


LAm          MIm
Ay, ay, ay, ay
SI7           MIm
Ay, ay, mi amor
LA       MIm SOL7        MIm
Ay mi morena de mi corazon....


BUENO ESO FUE TODO, ESPERO QUE LES GUSTE,
CUALQUIER COSA AMI CORREO, Y SI NO TIENEN EL TEMA AGREGUEN AL
MSN PARA QUE SE LOS PASE: powerstv@
Y QUE VIVA BOLIVIA CARAJO¡

Almost there ...

Sign in to get your own page with links to favourite songs and more. You are just one click away...

Login with Facebook Login with Google