Log in

One click and you are in

Login with Facebook Login with Google

Why sign up and log in

Guitar Tabs Explorer
Pistol Annies bass tabs for I feel a sin comin on

I Feel A Sin Comin On bass tab by Pistol Annies

Pistol Annies bass tabs for I feel a sin comin on

Bass tabs with lyrics

I Feel A Sin Comin' On
Pistol Annies
Annie Up
RCA Nashville 88765-44705-2
2013

Glenn Worf on bass
4/4 timing with swing
standard tuning, key F minor			pedals: none

bass rests until 2:00
Verses 1 & 2 (a capella)       x4
G:||----------------|----------------|----------------|----------------||
D:||----------------|----------------|----------------|----------------||
A:||-------R--------|-------R--------|-------R--------|-------R--------||
E:||----------------|----------------|----------------|----------------||
  1  2  3  4  1  2  3  4  1  2  3  4  1  2  3  4
Chorus (guitar)           x2
G:||----------------|----------------|----------------|----------------||
D:||----------------|----------------|----------------|----------------||
A:||-------R--------|-------R--------|-------R--------|-------R--------||
E:||----------------|----------------|----------------|----------------||
  1  2  3  4  1  2  3  4  1  2  3  4  1  2  3  4


Verse 3 (drum and guitar)      x2
G:||----------------|----------------|----------------|----------------||
D:||----------------|----------------|----------------|----------------||
A:||-------R--------|-------R--------|-------R--------|-------R--------||
E:||----------------|----------------|----------------|----------------||
  1  2  3  4  1  2  3  4  1  2  3  4  1  2  3  4


Chorus (drum and guitar)       x2
G:||----------------|----------------|----------------|----------------||
D:||----------------|----------------|----------------|----------------||
A:||-------R--------|-------R--------|-------R--------|-------R--------||
E:||----------------|----------------|----------------|----------------||
  1  2  3  4  1  2  3  4  1  2  3  4  1  2  3  4

Fill
G:|----------------|----------------|----------------|----------------|
D:|--------------6-|----------------|----------------|----------------|
A:|8---8---6---8---|8---8-----------|8---8---8-6-8-8-|----------------|
E:|----------------|--------8>------|----------------|8---8---4-4-6-8-|
  1  2  3  4  1  2  3  4  1  2  3  4  1  2  3  4

G:|----------------|----------------|----------------|-------------------|
D:|--------------6-|8---8-------8---|----------------|--------101010108--|
A:|8---8-------8---|--------8-------|8---8-8-------6-|8---8------------11|
E:|--------8-------|----------------|--------8---8---|-------------------|
  1  2  3  4  1  2  3  4  1  2  3  4  1  2  3   4

Outro Chorus
G:|----------------|----------------|----------------|----------------|
D:|----------------|----------------|----------------|----------------|
A:|8---8---------6-|8---8-6---------|8---8-----6-8-6-|----------------|
E:|--------8---8---|--------8---8---|--------8-------|8---8---4-4-6-8-|
  1  2  3  4  1  2  3  4  1  2  3  4  1  2  3  4

G:|----------------|----------------|----------------|----------------|
D:|----------------|----------------|----------------|----------------|
A:|8---8-8-6---6-6-|--------4>------|8---8-8-------6-|8---8---------6-|
E:|----------------|6--66-6---------|--------8---8---|--------8-6-8---|
  1  2  3  4  1  2  3  4  1  2  3  4  1  2  3  4

G:|-----------------|----------------|
D:|-------810>-108--|----------------|
A:|8---810--------10|8>--------------|
E:|-----------------|----------------|
  1  2  3  4   1  2  3  4


|| repeat between || as indicated	h hammer on		~ vibrato
/ slide up				p pull off
\ slide down				1. dotted note
> legato (let note ring)		11 fret one, twice
! staccato (full stop mute)		11 fret eleven
R rest					x ghost note

Almost there ...

Sign in to get your own page with links to favourite songs and more. You are just one click away...

Login with Facebook Login with Google