Log in

One click and you are in

Login with Facebook Login with Google

Why sign up and log in

Guitar Tabs Explorer
Pisse bass tabs for Fahrradsattel

Bass tabs

Tuning: Standard (E A D G)


Intro: (start At 00:19)
G|-------------------------------------|
D|-------------------------------------|
A|-------------------------------------|
E|---2-play-32-times-------------------|

G|-------------------------------------|
D|----------------2-2-2-2--------------|
A|--------4-4-4-4--------4-4-4-4-------|
E|2-2-2-2------------------------------| Play This Part 2 Times
Verse:
G|-------------------------------------|
D|-------------------------------------|
A|-------------------------------------|
E|---2-play-32-times-------------------|


Refrain:
G|-------------------------------------|
D|-------------------------------------|
A|5-5-5-5-4-4-4-4----------------------|
E|---------------2-2-2-2-5-5-5-5-------| Play This 4 Times


Verse:
G|-------------------------------------|
D|-------------------------------------|
A|-------------------------------------|
E|---2-play-32-times-------------------|


Refrain:
G|-------------------------------------|
D|-------------------------------------|
A|5-5-5-5-4-4-4-4----------------------|
E|---------------2-2-2-2-5-5-5-5-------| Play This 4 Times


Verse:
G|-------------------------------------|
D|-------------------------------------|
A|-------------------------------------|
E|---2-play-32-times-------------------|


Refrain:
G|-------------------------------------|
D|-------------------------------------|
A|5-5-5-5-4-4-4-4----------------------|
E|---------------2-2-2-2-5-5-5-5-------| Play This 4 Times

It‘s Not A Hundret Percent Correct But This Song Is German Punk So Who Cares At This Point :)
I Hope You Enjey Playing This Song

Almost there ...

Sign in to get your own page with links to favourite songs and more. You are just one click away...

Login with Facebook Login with Google