Log in

One click and you are in

Login with Facebook Login with Google

Why sign up and log in

Guitar Tabs Explorer
Pirates From Hell tabs for Life after death

Guitar tabs with lyrics

band: PIRATES FROM HELL
song: "Life After Death"
from 'Through The Hell's Gate' album
music by Marck Pithan, Vinny Blacksoul
lyric by Marck Pithan
tabbed by Guilherme Soares, Porto Alegre, Brazil

PIRATES FROM HELL'98:
Phill Amaro: bass guitar
Vinny BlackSoul: rhythm and lead guitars
Rapha Geller: drums
Marck Pithan: lead and rhythm guitars
Aless Thunderlow: vocals

Boys, you asked me for this one too... So, let's go...
This song ain't just easy to play, like all their songs. But everyone's
able to get
any Pirates From Hell song. So, if you don't get it soon, just keep trying.

I'm posting here "Life After Death", one of the best songs. I'm great
friend of
the band, so I get used to their sound, I mean, I played with the band
years ago and it's
easy for me getting their musics... I used to play a lot of their songs in
the beginning,
like "The Seventh Seal", but I didn't know this one at that time, but I
knew the way that
the other boys used to play, but the their solos and harmonies.
Here we go...


Tuning guitar: e A chord diagramBB A chord diagramG+G A chord diagramD MajorD A chord diagramA augmentedA A chord diagramE MajorE

gtr1: Marck Pithan
gtr2: Vinny Blacksoul
gtr3: Marck Pithan

m = palm muting (dead note)
h = hammer on
p = pull off
* = harmonic note
/ = slide
^ = bend
~ = vibration

RIFF 1: (intro)

guitar2:
|-5-5--5-7-8~-8--7-8-7-6-6/8~--8^--5h6p5h6p5-|e
|--------------------------------------------|A chord diagramBB
|--------------------------------------------|A chord diagramG+G
|--------------------------------------------|A chord diagramD MajorD
|--------------------------------------------|A chord diagramA augmentedA
|--------------------------------------------|A chord diagramE MajorE


guitar1:
|-8-8--8-9-11~-11~--9-11-9-10-10/11~--11^--10h11p10h11p10-|e
|---------------------------------------------------------|A chord diagramBB
|---------------------------------------------------------|A chord diagramG+G
|---------------------------------------------------------|A chord diagramD MajorD
|---------------------------------------------------------|A chord diagramA augmentedA
|---------------------------------------------------------|A chord diagramE MajorE


ending: gtr1 plays the A chord diagramF#F# one the last one string, as the
gtr2 plays the same chord on the first A chord diagramE MajorE string, and holds on.

Remember: The gtr2 is the one which begins. The gtr2 enter later.



RIFF 2: (verses)

grt1: ending 3 times on A5, then end once on Em5...

(3x)                                      A chord diagramA5A5
|---------------------------------------|-------|
|---------------------------------------|-------|
|---------------------------------------|-------|
|---------------------------------------|-2-2-2-|
|---------------------------------------|-0-0-0-|
|-2--2-3-2--2-2--2-3-2--2-2--2-3-2--2-2-|-------|

(1x)                                      Em5
|---------------------------------------|-------|
|---------------------------------------|-------|
|---------------------------------------|-------|
|---------------------------------------|-2-2-2-|
|---------------------------------------|-2-2-2-|
|-2--2-3-2--2-2--2-3-2--2-2--2-3-2--2-2-|-0-0-0-|A chord diagramE MajorE



RIFF 3: (Harmonic intercalude)

gtr2: after gtr1 plays 4 times
|-2--2-3-2--2-2--2-3-2--2-2--2-3-2--2-2---5-5-3--|e
|------------------------------------------------|A chord diagramBB
|------------------------------------------------|A chord diagramG+G
|------------------------------------------------|A chord diagramD MajorD
|------------------------------------------------|A chord diagramA augmentedA
|------------------------------------------------|A chord diagramE MajorE


gtr3: after gtr2 plays 4 times
|-5--5-7-5--5-5--5-7-5--5-5--5-7-5--5-5---8-8-7--|e
|------------------------------------------------|A chord diagramBB
|------------------------------------------------|A chord diagramG+G
|------------------------------------------------|A chord diagramD MajorD
|------------------------------------------------|A chord diagramA augmentedA
|------------------------------------------------|A chord diagramE MajorE

    after 4 times plays:
|-7--7-8-7--7-7--7-8-7--7-7--7-8-7--7-7--10-10-8-|e
|------------------------------------------------|A chord diagramBB
|------------------------------------------------|A chord diagramG+G
|------------------------------------------------|A chord diagramD MajorD
|------------------------------------------------|A chord diagramA augmentedA
|------------------------------------------------|A chord diagramE MajorE

    after 2 times, plays this twice:
|-9--9-10-9--9-9--9-10-9--9-9--9-10-9--9-9-12-12-10-|e
|---------------------------------------------------|A chord diagramBB
|---------------------------------------------------|A chord diagramG+G
|---------------------------------------------------|A chord diagramD MajorD
|---------------------------------------------------|A chord diagramA augmentedA
|---------------------------------------------------|A chord diagramE MajorE



RIFF 4: (chorus)

|------------------------------------------------------------------|e
|------------------------------------------------------------------|A chord diagramBB
|-5--5-5--5--4--4-4--4--7--7-7--7--9--9-9--9--5--5-5--5--4--4-4--4-|A chord diagramG+G
|-5--5-5--5--4--4-4--4--7--7-7--7--9--9-9--9--5--5-5--5--4--4-4--4-|A chord diagramD MajorD
|-3--3-3--3--2--2-2--2--5--5-5--5--7--7-7--7--3--3-3--3--2--2-2--2-|A chord diagramA augmentedA
|------------------------------------------------------------------|A chord diagramE MajorE



RIFF 5: rhythm for solo 1 (4x)

|---------------------------|---------------------------|e
|---------------------------|---------------------------|A chord diagramBB
|---------------------------|---------------------------|A chord diagramG+G
|---------------------------|---------------------------|A chord diagramD MajorD
|---------------------------|---------------------------|A chord diagramA augmentedA
|-22222222-0-3-55555555-3-0-|-22222222-0-3-55555555-3-0-|A chord diagramE MajorE
       4x                  then, 4x


RIFF 6: rhythm for solo 2 (2x)

|---------------------------|---------------------------|e
|---------------------------|---------------------------|A chord diagramBB
|---------------------------|---------------------------|A chord diagramG+G
|---------------------------|---------------------------|A chord diagramD MajorD
|-00000000---2-33333333-2---|-00000000---2-33333333-2---|A chord diagramA augmentedA
|----------3--------------3-|----------3--------------3-|A chord diagramE MajorE



RIFF 7: rhythm for harmony solo/instrumental breaks (4x)

|--------------------|--------------------|e
|--------------------|--------------------|A chord diagramBB
|--------------------|--------------------|A chord diagramG+G
|-2---------5---7--7-|-2---------5---7--7-|A chord diagramD MajorD
|-2---------5---7--7-|-2---------5---7--7-|A chord diagramA augmentedA
|-0-0000000-3---5--5-|-0-0000000-3---5--5-|A chord diagramE MajorE


In live gigs, Marck used to do a short solo during this part. Just try it
on Em5.
Marck and Vinny do a great harmony solo (album and live), but it's so hard
to do.

To return to the verses, you hold on A chord diagramF#5F#5 for awile, then Marck does the

riff 2.

It's all the riffs for "Life After Death".
The riffs go like this:

 1 Intro. Grt2 begins first, then Grt1 enters.
 2 Riff 2. Before the first intercalude, only Gtr1 plays the riffs.
 3 Intercalude. Gtr2 does the intercalude and gtr1 does the riff 2.
 4 Gtr3 begins to play the riff 3 (intercalude), as gtr1 keeps doinf the
riif 2.
 5 Gtr1 and 2 play the riffs 2 for the verses. Vocal enters here.
 6 before chorus, only gtr2 does riff 3. Gtr1 does riff 2.
 7 Chorus.
 8 Intercalude. gtr1, 2, 3  do this part.
 9 Gtr1 and 2 play the riffs 2 for the verses. Vocal enters again.
10 before chorus, only gtr2 does riff 3. Gtr1 does riff 2.
11 Chorus.
12 Intercalude. gtr1, 2, 3  do this part, once more.
13 Riff 5. Instrumental breaks begins.
14 Riff 6. still on solos (not posted).
15 Riff 7. Another solo (only live versions - not posted), harmony solo
(not posted)
16 Return to the verses.
17 Just repeat verses, intercaludes and choruses again as long it takes.


"Life After Death" (music: Marck Pithan, Vinny Blacksoul/lyric: Marck Pithan)
'Through The Hell's Gates'98
Pirates From Hell.
ⓘ Guitar tab for 'Life After Death' by, a female blues artist from Tennessee, United States. was born in 1957.

Almost there ...

Sign in to get your own page with links to favourite songs and more. You are just one click away...

Login with Facebook Login with Google