Log in

One click and you are in

Login with Facebook Login with Google

Why sign up and log in

Guitar Tabs Explorer
Piperrak bass tabs for Mi primer amor

Bass tabs

Intro
/----------------------------------------|
/----------------------------------------|
/-99--------99-------8-11-8--8-11-8------|  X2(despues de Arde Ribera
/----9-77-9----9-77-9-------9------------|     cambia el ritmo)

¬°¬°Arde Ribera!!
/-----------------------------------------------------------------|
/-----------------------------------------------------------------|
/999999----------------------999999-------------------------------|
/------999999-777777-999999--------999999-777777-999999-----------|

/-----------------------------------------------------------------|
/-----------------------------------------------------------------|
/999999----------------------999999-------------------------------|
/------999999-777777-999999--------999999-777777-9--9--9--9-------|
                                ..de haberme enamorado de una botella
/------------------------------------------------------|
/-8-11-8-8-11-8----------------------------------------|
/9------9-------8-11-8-8-11-8-8-10-8-8-10-8------------| X2
/--------------9------9------7------7------9-9-9-9-9-9-|

/-------------------------------------------------------|
/-------------------------------------------------------|
/999999----------------------999999---------------------| X2
/------999999-777777-999999--------999999-777777-999999-|

/----------------------------------------|
/-8-8-8-8--------------------------------|
/9-9-9-9--8-8-8-8-6-6-6-6--8-11-8-8-11-8-|
/--------9-9-9-9-7-7-7-7--9------9-------|

/-------------------------------------------------------|
/-------------------------------------------------------|
/999999----------------------999999---------------------|
/------999999-777777-999999--------999999-777777-999999-|

/--------------------------------------|
/--------------------------------------|
/999999---------------------9--------7-|

Almost there ...

Sign in to get your own page with links to favourite songs and more. You are just one click away...

Login with Facebook Login with Google