Log in

One click and you are in

Login with Facebook Login with Google

Why sign up and log in

Guitar Tabs Explorer
Piperrak guitar tabs for Bush satan

Guitar tabs

Para el guitarra ke se ha sakado kasi todas las canciones.


Introducción sin letra;
                                         (x2 )
----------------------------------------------
----------------------------------------------
----9---------5-------------------------7-----
----------------------5------------------------
-------------------------------------------------
-------------------------------------------------
---9-------5---------------------------------7---
----------------------5--------------------------

----------------------------------------------------
 -------------------------------------66----99---66-
 ----9----5------------------77---------------------
 ---------------5-----------------------------------

Desde; Buaaaaaaaaaaa..... Hasta; El ruido de las bombas..

--------------------------------------
--------------------------------------
----9-------5---------------------7---
-------------------------5------------

La parte del bajo;

-------------------------------------------------
-----------77--------- 77----------77---------77-
-999999---555555-----------------777777----------
---------------------------555555----------------

---------------------------------------------------
----------77---------77----------------66--99--66--
-999999------555555-----------------77-------------
------------------------555555---77----------------

Durante el solo de guitarra (ke os tenies ke sakar vosotros);
el resto de lo instrumentos toka de esta forma.

--------------------------------
--------------------------------
---9------5-----------------7---
-------------------5------------

-----------------------------------------------
 ---------------------------------66---99---66-
--9-------5------------------77----------------
-----------------5-----------------------------

Desde ke empieza a kantar; pasado el atake  Hasta;el final.

----------------------------------
----------------------------------
----9-----5-------------------7---
--------------------5-------------


La guitarra es muy sencilla sigue la misma estructura.
 Un saludo para akellos ke escuchen e inerpreten piperrak.

Other versions of Bush Satan

Bush satanChords

Almost there ...

Sign in to get your own page with links to favourite songs and more. You are just one click away...

Login with Facebook Login with Google