Log in

One click and you are in

Login with Facebook Login with Google

Why sign up and log in

Guitar Tabs Explorer
Pip Millett bass tabs for Make me cry

Bass tabs with lyrics

Tuning: Standard (E A D G)

'Make me cry'
Cracking tune by Pip Millett produced by Lester Duval

Played on 2 layered bass guitars but could be played on 1 with tactical looping

Bass 1 part:
8 Bar loop goes throughout whole song (mostly)
Sounds like it has an envelope filter on
G|-------------|-----------14-12h14-12--|-------------|-------------|
D|10h12~-------|10--/15-15--------------|8------------|---------10--|
A|-------------|------------------------|-------------|-------------|
E|-------------|------------------------|-------------|-------------|

G|-------------|-----------14-12h14-12--|-------------|-------------|
D|/12----------|10------15--------------|8------------|-----------10|
A|-------------|------------------------|-------------|------11/12--|
E|-------------|------------------------|-------------|-------------|


Bass 2 parts:

Chorus 1
G|-------5--8/9|------------------|----------3h5-|-3----------|
D|----7--------|10-------10-------|-------3------|----7--3----|
A|5------------|------------12-\1-|1---5---------|----------5-|
E|-------------|------------------|--------------|------------|

G|-------5--8/9|------------------|----------3h5-|-3----------|-----------|
D|----7--------|10-------10-------|-------3------|----7--3----|-----------|
A|5------------|------------12-\1-|1---5---------|--------3---|3h5--------|
E|-------------|------------------|--------------|------------|-----------|
                                (Bass 1 doubles D|10h12 Then rests
                                a bar before resuming on bar 2)

Verse 2
loops for whole verse, slightly muted
G|------------|------------|--------------|------------|
D|---7--5--3--|---5--3--5--|------3--5/7--|5--3--------|
A|5-----------|3-----------|1--5----------|------5--3--| x3
E|------------|------------|--------------|------------|

G|------------|------------|--------------|------------|
D|---7--5--3--|---5--3--5--|------3--5/7--|5--3--------|
A|5-----------|3-----------|1--5----------|------5-----|
E|------------|------------|--------------|------------|


Chorus 2
G|-------5--8/9|------------------|----------3h5-|-3----------|
D|----7--------|10-------10-------|-------3------|----7--3----|
A|5------------|------------12-\1-|1---5---------|----------5-|
E|-------------|------------------|--------------|------------|

G|-------5--8/9|------------------|----------3h5-|-3----------|
D|----7--------|10-------10-------|-------3------|----7--3----|
A|5------------|------------12-\1-|1---5---------|--------3---|
E|-------------|------------------|--------------|------------|

G|-------5--8/9|------------------|----------3h5-|-3----------|
D|----7--------|10-------10-------|-------3------|----7--3----|
A|5------------|------------12-\1-|1---5---------|----------5-|
E|-------------|------------------|--------------|------------|

G|-------5--8/9|------------------|--------------|------------|
D|----7--------|10-------10-------|--------------|------------|
A|5------------|------------12-\1-|1-------------|------------|
E|-------------|------------------|--------------|------------|


************************************

| h  Hammer-on
| /  Slide up
| \  Slide down
| ~  Vibrato

************************************

Almost there ...

Sign in to get your own page with links to favourite songs and more. You are just one click away...

Login with Facebook Login with Google