Log in

One click and you are in

Login with Facebook Login with Google

Why sign up and log in

Guitar Tabs Explorer
Pink Sweat$ chords for At my worst ukulele

Guitar chords with lyrics

Tuning: G C E A (G C E A)

♫ Intro:

A|-3-5-3--3-2-3-2-0-|-2-3-5--5-8-7-5-2-2-|
E|------------------|--------------------|
C|------------------|--------------------|
G|------------------|--------------------|
Verse 1:
        C          Am
Can I call you baby? Can you be my friend?
       Dm           G
Can you be my lover up until the very end?
        C        Am
Let me show you love, oh, no pretend
      Dm                 G
Stick by my side even when the world is caving in, yeah


♫ Pre-Chorus:
      C        Am
Oh, oh, oh, don't, don't you worry
    Dm         G
I'll be there whenever you want me


♫ Chorus:

A|-------------------2-2-3-|-------------------------|-------------------------3-2-0-|
E|-0-------0-------0-------|-0-------0-------0-------|---0-----0-0-----0-0-----------|
C|---0-0-2---0-0-2---------|---0-0-2---0-0-2---0-0-2-|-0---0-0-----0-0-----0-0-------|
G|-------------------------|-------------------------|-------------------------------|

A|-------------------2-|
E|-----1-1-0-------0---|
C|---0-------0-0-2-----|
G|-2-------------------|

Post-♫ Chorus:
C      Am
Ooh, ooh-ooh
    Dm         G
Ooh-ooh-ooh, ooh-ooh-ooh-ooh


♫ Verse 2:
        C           Am
If you stay forever, let me hold your hand
         Dm                G
I can fill those places in your heart no one else can
        C        Am
Let me show you love, oh, no pretend, yeah
       Dm                G
I'll be right here, baby, you know it's sink or swim


♫ Pre-Chorus:
      C        Am
Oh, oh, oh, don't, don't you worry
    Dm         G
I'll be there whenever you want me


♫ Chorus:
      C             Am
I need somebody who can love me at my worst
       Dm               G
Know I'm not perfect, but I hope you see my worth, yeah
         C             Am
'Cause it's only you, nobody new, I put you first (You first)
    Dm              G
And for you, girl, I swear I'd do the worst


Post-♫ Chorus:
C
Ooh,
    Am        Dm
ooh-ooh-ooh-ooh-ooh, ooh-ooh-ooh-ooh
         G
Ooh-ooh-ooh, ooh, ooh-ooh
    C            Am
Ooh-ooh-ooh, ooh-ooh-ooh-ooh-ooh
    Dm          G
Ooh-ooh-ooh, ooh-ooh-ooh-ooh-ooh


♫ Outro:
      C             Am
I need somebody who can love me at my worst
       Dm               G
Know I'm not perfect, but I hope you see my worth
         C             Am
'Cause it's only you, nobody new, I put you first
    Dm              G
And for you, girl, I swear I'd do the worst

Almost there ...

Sign in to get your own page with links to favourite songs and more. You are just one click away...

Login with Facebook Login with Google