Log in

One click and you are in

Login with Facebook Login with Google

Why sign up and log in

Guitar Tabs Explorer
Pink Guy bass tabs for Help

Bass tabs

Intro:
(ukulele) No bass


Verse 1:
(ukulele) No bass
Chorus 1:
(0:40)
G|---------------------------------------------------------------------------|
D|---------------------------------------------------------------------------|
A|---------------------------------------------------------------------------|
D|------------0-0--0-5-5--5-7-7--7-7-5----0-0--0-5-5--5-7-7--7-7-5--5--------|


Verse 2:
(1:13)
G|---------------------------------------------------------------------------|
D|---------------------------------------------------------------------------|
A|---------------------------------------------------------------------------|
D|---------12/0-0--0-5-5--5-7-7--7-7-5----0-0--0-5-5--5-7-7--7-7-5--5--------|

G|---------------------------------------------------------------------------|
D|---------------------------------------------------------------------------|
A|---------------------------------------------------------------------------|
D|------------0-0--0-5-5--5-7-7--7-7-5----0-0--0-5-5--5-7-7--7-7-5--5--------|


Bridge:
"Ladies and Gentlemen"
(1:39)
G|---------------------------------------------------------------------------| (4x)
D|-/12-12-12-12-12-12-12-12-12-12-12-12-12-12-12-12-12-12-12-12-12-12-12-12--|
A|---------------------------------------------------------------------------|
D|---------------------------------------------------------------------------|


Chorus 2:
(2:10)
G|---------------------------------------------------------------------------|
D|---------------------------------------------------------------------------|
A|---------------------------------------------------------------------------|
D|---------12/0-0--0-5-5--5-7-7--7-7-5----0-0--0-5-5--5-7-7--7-7-5--5--------|

G|---------------------------------------------------------------------------|
D|---------------------------------------------------------------------------|
A|---------------------------------------------------------------------------|
D|------------0-0--0-5-5--5-7-7--7-7-5----0-0--0-5-5--5-7-7--7-7-5--5--------|

Almost there ...

Sign in to get your own page with links to favourite songs and more. You are just one click away...

Login with Facebook Login with Google