Search tabs and chords

Browse bands and artists

A B C D E F G H I J K L M N O P Q R S T U V W X Y Z #

Log in

[ Register here | Forgot password ]

Guitar Tabs Explorer
Print

Money tab by Pink Floyd (Ver. 2)

Solo tabs

This tab is for the little solo in the middle of Pink Floyd's Money, live on the 'Delicate Sound of Thunder' album. Solo starts at 7:30, depending on which recording you're listening to.

  • Tuning: Standard
  • Difficulty: Intermediate
Key: Bm

e|----------------------------------|-----------------------------------------|
B|----------------------------------|-----------------------------------------|
G|--------7---------7-----9-----7---|---9br11p7h9p7---------------------------|
D|---/9-------9---------------------|--------------------9p7------------------|
A|----------------------------------|-----------------------------------------|
E|----------------------------------|-----------------------------------------|

e|--------full bar rest for brass response------------------------------------|
B|----------------------------------|-----------------------------------------|
G|----------------------------------|-----------------------------------------|
D|----------------------------------|-----------------------------------------| x2
A|----------------------------------|-----------------------------------------|
E|----------------------------------|-----------------------------------------|


e|----------------------------------|-----------------------------------------|
B|----------------------------------|-----------------------------------------|
G|--------0---------0-----2-----0---|---2br4p0--2p0--0------------------------|
D|----2-------2---------------------|---------------2-2p0---------------------|
A|----------------------------------|---------------------2p1p0---------------|
E|----------------------------------|----------------------------3~-----------|

e|--------full bar rest for brass response------------------------------------|
B|----------------------------------|-----------------------------------------|
G|----------------------------------|-----------------------------------------|
D|----------------------------------|-----------------------------------------|
A|----------------------------------|-----------------------------------------|
E|----------------------------------|-----------------------------------------|

e|----------------------------------|-----------------------------------------|
B|----------------------------------|-----------------------------------------|
G|--------7---------7-----9-----7---|---9br11p7h9p7---------------------------|
D|---/9-------9---------------------|--------------------9p7------------------|
A|----------------------------------|-----------------------------------------|
E|----------------------------------|-----------------------------------------|

e|--------full bar rest for brass response------------------------------------|
B|----------------------------------|-----------------------------------------|
G|----------------------------------|-----------------------------------------|
D|----------------------------------|-----------------------------------------|
A|----------------------------------|-----------------------------------------|
E|----------------------------------|-----------------------------------------|


e|----------------------------------|-----------------------------------------|
B|--------10--10------------10--10--|---------10--10----------10--10----------|
G|---/11--------------/11-----------|----/11-------------/11------------------|
D|----------------------------------|-----------------------------------------|
A|----------------------------------|-----------------------------------------|
E|----------------------------------|-----------------------------------------|

e|----9br10-------------------------|-----------------------------------------|
B|------------------10br12----------|---8----7----5---------------------------|
G|----------------------------------|--------------------9br11----------------|
D|----------------------------------|------------------------------9----------|
A|----------------------------------|-----------------------------------------|
E|----------------------------------|-----------------------------------------|


************************************

| h   Hammer-on
| p   Pull-off
| B   Bend
| br  Bend & release
| /   Slide up
| ~   Vibrato

************************************

Other versions of Money

MoneyTabs

Comments