Log in

One click and you are in

Login with Facebook Login with Google

Why sign up and log in

Guitar Tabs Explorer
Pink Floyd bass tabs for Another brick in the wall part two

Another Brick In The Wall Part Two bass tab by Pink Floyd

Pink Floyd bass tabs for Another brick in the wall part two

Bass tabs

TUNING: DROP D

h:hammer on
         x4
g|-------|--------------|---------------------------------------|
d|-------|--------------|---------------------------------------|
a|-------|---35--5--50-3|--------------------------------5--50--|
d|0------|0-------------|5---5---5--5--5-5-5-5/12--1012--------5|

g|--------------------------------------------|
d|--------------------------------------------|
a|-----3----3h4-5--35--5--50--------3----3h4-5|
d|3--------------------------5-3--------------|
         x4
g|------|--------------|---------------------------------------|
d|------|--------------|---------------------------------------|
a|------|---35--5--50-3|--------------------------------5-5-0--|
d|0-----|0-------------|5---5---5--5--5-5-5-5/12-10-12--------5|
			x2
g|------------------------------------------|--------------|
d|------------------------------------------|--------------|
a|-----3----3h4-5--35--5--50--------3----3h4|5--35--5--50-3|
d|3--------------------------5-3------------|--------------|
       x6          x5
g|--------------------------------|-----|
d|--------------------------------|-----|
a|5--35--5--5-0-3--5--35--5--5-0-3|5--35|
e|--------------------------------|-----|

great song
funky bass line
once again
please rate this

Almost there ...

Sign in to get your own page with links to favourite songs and more. You are just one click away...

Login with Facebook Login with Google