Guitar Tabs Explorer
Pink Floyd bass tabs for Another brick in the wall

Another Brick In The Wall bass tab


5 / 5 [1 vote]

Another Brick In The Wall bass tab by Pink Floyd

Bass tabs

Print

Song Part 1: The Happiest days Of Our Lives
                             .                               .
G|------------|------------------------------------------------
D|-HELICOPTER-|------------------------------------------------
A|---START----|-5-h3h5h5h5---5---5-h3h5h5h5---5-5--3-3--1-1?0--
D|------------|----------------------------------------------5-

   .     .     .       .       .       .       .      .  .     .    .
G|--------------------------------------------------------------------
D|--------------------------------------------------------------------
A|-------------------------------------------------------3------------
D|-5-----5-----5-----5-7-----5-7-----5-7-----5-7----5-7------5-7----7-
.
       .         .          .   .     .         .      .      .      .
G|---------------------------------------------------------------------
D|---------------------------------------------------------------------
A|---------------------------------------------------------------------
D|-5---7---7--5--3----3--5--7---7--5--2---2--5--7----5-7----5-7----5-7-

                                        .            .   .   .    .   .
G|----------------------------------------------------------------------
D|----------------------------------------------------------------------
A|-5--5--5--5-3-1--1--1--1-0------------3---1-0------1-------1--------1-
D|--------------------------5--5--5--5---------5-3-------3--------3-----

     .     .      We don?t need no education....(Let Note Ring)
G|-----------------------------------------------
D|-----------------------------------------------
A|---3-----3-------------------------------------
D|-------------------------------------------0---

We don?t need no thoughts controlled     .                .
G|---------------------------------------------------------------------
D|---------------------------------------------------------------------
A|-------------------------------------3-5----5-5-0-3---3-5----5-5-0-3-
D|-----------------------------------0----------------0----------------
       .                .
G|----------------------------------------------------------------
D|--------------------------------------5-5---5-5-----------------
A|---3-5----5-5-0-3---3-5----5-5-0-3------------------------------
D|-0----------------0----------------5-----5------5---5---5-5-5-5-

       .                         .                      (Break)
G|--------------------------------------------------------
D|--------------------------------------------------------
A|-5-3-5----5-5---------3---3--3-5----5-5---------3---3/5-
D|-------------7-5-3---3-----0-----------7-5-3---3--------

Second Verse/Chorus:

We don?t need no education....(Let Note Ring)
G|----------------------------
D|----------------------------
A|----------------------------
D|-------------------------0--

We don?t need no thoughts controlled     .                .
G|---------------------------------------------------------------------
D|---------------------------------------------------------------------
A|-------------------------------------3-5----5-5-0-3---3-5----5-5-0-3-
D|-----------------------------------0----------------0----------------
       .                .
G|-----------------------------------------------------------------
D|--------------------------------------5-5---5-5------------------
A|---3-5----5-5-0-3---3-5----5-5-0-3-------------------------------
D|-0----------------0-----------------5-----5------5---5---5-5-5-5-
       .                         .
G|------------------------------------------------------
D|------------------------------------------------------
A|-5-3-5----5-5---------3---3--3-5----5-5---------3---3-
D|-------------7-5-3---3-----0-----------7-5-3---3------

Pre Solo Fill:
G|-------------------------------------
D|-------------------------------------
A|-5-3-5----5-5-0-3---5-3-5----5-5-0-3-
D|-------------------------------------

Guitar Solo:        (Play This x7)
       .       .       .
G|---------------------------------
D|---------------------------------
A|---3-5---5-3-5---5-3-5---5-5-0-3-
D|-0-------------------------------

(The Song Fades Into Effects along with Hey You! Stand still Laddie)

Suggested Outro
G|--------------------------------------------------------
D|--------------------------------------------------------
A|---3-5----5-5---------3---3--3-5----5-5---------3---3/5-
E|-0-----------7-5-3---3-----0-----------7-5-3---3--------

Other versions of Another Brick In The Wall

- Another Brick in The Wall Part 2Bass tabs
- Another Brick in The Wall Part 2 (Ver. 2)Bass tabs
- Another Brick in The Wall Part 2 (Ver. 3)Bass tabs
- Another Brick in The Wall Pt 1Bass tabs

Comment this song and these bass tabs

Do you have corrections, comments on the bass tabs, thoughts about the song or a message to the author? Write them below.