Log in

One click and you are in

Login with Facebook Login with Google

Why sign up and log in

Guitar Tabs Explorer
P!nk bass tabs for Trouble

Bass tabs

Trouble - Pink


Tabbed By : MoerchenOppi
E-mail: Rambox2@web.de

Tuning: Standard
Vers1
G|--------------------------------------------------------------|
D|--------------------------------------------------------------|
A|-------55-5--33-3--------------55-5--33-3---------------------|
E|-33-3--------------33-3--33-3---------------------------------|


Chorus1
G|--------------------------------------------------------------|
D|--5-----5-----5-----5---5-------------------------------------|
A|---3335--3335--3335--333-555333-------------------------------|
E|-3-----3-----3-----3------------------------------------------|

G|--------------------------------------------------------------|
D|--5-----5-----5-----5---5-------------------------------------|
A|---3335--3335--3335--333-555333-------------------------------|
E|-3-----3-----3-----3------------------------------------------|

Vers2
G|--------------------------------------------------------------|
D|--------------------------------------------------------------|
A|-------55-5--33-3--------------55-5--33-3--55-5---------------|
E|-33-3--------------33-3--33-3---------------------------------|


Chorus2
G|--------------------------------------------------------------|
D|--5-----5-----5-----5---5-------------------------------------|
A|---3335--3335--3335--333-555333-------------------------------|
E|-3-----3-----3-----3------------------------------------------|

G|--------------------------------------------------------------|
D|--5-----5-----5-----5---5-------------------------------------|
A|---3335--3335--3335--333-555333-------------------------------|
E|-3-----3-----3-----3------------------------------------------|

Bridge1
G|--------------------------------------------------------------|
D|--------------------------------------------------------------|
A|-2-----------3---2-----------3---5----------------------------|
E|-----0---5-----------0---5------------------------------------|

Chorus3
G|--------------------------------------------------------------|
D|--5-----5-----5-----5---5-------------------------------------|
A|---3335--3335--3335--333-555333-------------------------------|
E|-3-----3-----3-----3------------------------------------------|

G|--------------------------------------------------------------|
D|--5-----5-----5-----5---5-------------------------------------|
A|---3335--3335--3335--333-555333-------------------------------|
E|-3-----3-----3-----3------------------------------------------|

Vers3
G|--------------------------------------------------------------|
D|--------------------------------------------------------------|
A|-------55-5--33-3--------------55-5--33-3---------------------|
E|-33-3--------------33-3--33-3---------------------------------|

G|--------------------------------------------------------------|
D|--------------------------------------------------------------|
A|-------55-5--33-3--------------55-5--33-3--55-5---------------|
E|-33-3--------------33-3--33-3---------------------------------|


Chorus4                           <-----|Play
G|--------------------------------------------------------------| |with
D|--5-----5-----5-----5---5-------------------------------------| |more
A|---3335--3335--3335--333-555333-------------------------------| |fun
E|-3-----3-----3-----3------------------------------------------| |(harder,
                                  |louder..)
G|--------------------------------------------------------------| |.
D|--5-----5-----5-----5---5-------------------------------------| |:)
A|---3335--3335--3335--333-555333-------------------------------| |
E|-3-----3-----3-----3------------------------------------------| |
                               <-----|
Bridge1
G|--------------------------------------------------------------|
D|--------------------------------------------------------------|
A|-2-----------3---2-----------3---5----------------------------|
E|-----0---5-----------0---5------------------------------------|


Chorus5                           <-----|If you
G|--------------------------------------------------------------| |want
D|--5-----5-----5-----5---5-------------------------------------| |you can
A|---3335--3335--3335--333-555333-------------------------------| |play,
E|-3-----3-----3-----3------------------------------------------| |but
                                  |original
G|--------------------------------------------------------------| |only
D|--5-----5-----5-----5---5-------------------------------------| |drums.
A|---3335--3335--3335--333-555333-------------------------------| |
E|-3-----3-----3-----3------------------------------------------| |
                               <-----|

                               <-----|Play
G|--------------------------------------------------------------| |with
D|--5-----5-----5-----5---5-------------------------------------| |more
A|---3335--3335--3335--333-555333-------------------------------| |fun
E|-3-----3-----3-----3------------------------------------------| |(harder,
                                  |louder..)
G|--------------------------------------------------------------| |.
D|--5-----5-----5-----5---5-------------------------------------| |:)
A|---3335--3335--3335--333-555333-------------------------------| |
E|-3-----3-----3-----3------------------------------------------| |
                               <-----|

                               <-----|DonĀ“t
G|--------------------------------------------------------------| |play
D|--5-----5-----5-----5---5-------------------------------------| |so
A|---3335--3335--3335--333-555333-------------------------------| |loud
E|-3-----3-----3-----3------------------------------------------| |because
                                  |of
G|--------------------------------------------------------------| |E-Gitarre
D|--5-----5-----5-----5---5-------------------------------------| |solo.
A|---3335--3335--3335--333-555333-------------------------------| |
E|-3-----3-----3-----3------------------------------------------| |
                               <-----|

In Vers, Chorus and Bridge pay attention on the rythme of the song :P

|~~~M~M~~~~~OO~~~EEE~~RRr~~~CC~~H~H~~EEE~~n~N~~~OO~~~PPp~~PPp~I~|
|~~M~M~M~~~O~~O~~Eee~~Rrr~~C~~~~HHH~~Eee~~NnN~~O~~O~~Ppp~~Ppp~I~|
|~M~~~~~M~~~OO~~~EEE~~R~R~~~CC~~H~H~~EEE~~N~n~~~OO~~~P~~~~P~~~I~|

Other versions of Trouble

Trouble (Ver. 2)Bass tabs

Almost there ...

Sign in to get your own page with links to favourite songs and more. You are just one click away...

Login with Facebook Login with Google