Log in

One click and you are in

Login with Facebook Login with Google

Why sign up and log in

Guitar Tabs Explorer
P!nk tabs for So what

Guitar tabs

Tuning: Standard


intro/verse/outro
E--------------------------------------------|
B--------------------------------------------|
G--------------------------------------------|
D-----------7--------------------------------|
A--9--7--9-----9--7--------------------------|
E--------------------9--9--7--9--9--7--2-----|

or

E------------------------------------------|
B------------------------------------------|
G-----------2------------------------------|
D--4--2--4-----4--2------------------------|
A--------------------4---4--2--4--4--2-----|
E---------------------------------------2--|


Chorus


E------------------|
B------------------|
G-------6-------7--|
D---7---6---4---7--|
A---7---4---4---5--|
E---5-------2------|


Solo- plays with one of the last chorus’ you can either play this or the chorus

E------------------------------------------------------------|
B---10----------10----------10-------------------------------|
G-------9--7--6----9--7--6------9--7--6--4--2--4--6----------|
D--------------------------------------------------    Play--| 2x
A------------------------------------------------------------|

Other versions of So What

So whatChords
So whatTabs
So what (Ver. 2)Tabs
So what (Ver. 3)Tabs

Almost there ...

Sign in to get your own page with links to favourite songs and more. You are just one click away...

Login with Facebook Login with Google