Log in

One click and you are in

Login with Facebook Login with Google

Why sign up and log in

Guitar Tabs Explorer
P!nk tabs for So what (Ver. 3)

Guitar tabs

Verse
|--------------------------------------------|
|--------------------------------------------|
|-----------2--------------------------------|
|--4--2--4------4--2-------------------------|
|----------------------4---4--4--2--4--2-----|
|-----------------------------------------2--|

x7

|-------------------------|
|-------------------------|
|-----------2-------------|
|--4--2--4------4--2------|
|----------------------4--|
|-------------------------|

|--------------------------------------------|
|--------------------------------------------|
|-----------2--------------------------------|
|--4--2--4------4--2-------------------------|
|----------------------4---4--4--2--4--2-----|
|-----------------------------------------2--|


Chorus
|-----------------|-----------------|
|-----------------|-----------------|
|-----------------|-----------------|
|--7---7---7---7--|-11--11--11--11--|
|--7---7---7---7--|-11--11--11--11--|
|--5---5---5---5--|--9---9---9---9--|

|-----------------|-----------------|
|-----------------|-----------------|
|-----------------|-----------------|
|--4---4---4---4--|-12--12--12--12--|
|--4---4---4---4--|-12--12--12--12--|
|--2---2---2---2--|-10--10--10--10--|

x2

|-----------------|-----------------|
|-----------------|-----------------|
|-----------------|-----------------|
|--7---7---7---7--|-11--11--11--11--|
|--7---7---7---7--|-11--11--11--11--|
|--5---5---5---5--|--9---9---9---9--|

|-----------------|-----------------|
|-----------------|-----------------|
|-11--11--11--11--|--7---7---9---9--|
|-11--11--11--11--|--7---7---9---9--|
|--9---9---9---9--|--5---5---7---7--|
|-----------------|-----------------|

x2

Verse
|--------------------------------------------|
|--------------------------------------------|
|-----------2--------------------------------|
|--4--2--4------4--2-------------------------|
|----------------------4---4--4--2--4--2-----|
|-----------------------------------------2--|

x4

|-------------------------|
|-------------------------|
|-----------2-------------|
|--4--2--4------4--2------|
|----------------------4--|
|-------------------------|

|--------------------------------------------|
|--------------------------------------------|
|-----------2--------------------------------|
|--4--2--4------4--2-------------------------|
|----------------------4---4--4--2--4--2-----|
|-----------------------------------------2--|


Chorus
|-----------------|-----------------|
|-----------------|-----------------|
|-----------------|-----------------|
|--7---7---7---7--|-11--11--11--11--|
|--7---7---7---7--|-11--11--11--11--|
|--5---5---5---5--|--9---9---9---9--|

|-----------------|-----------------|
|-----------------|-----------------|
|-----------------|-----------------|
|--4---4---4---4--|-12--12--12--12--|
|--4---4---4---4--|-12--12--12--12--|
|--2---2---2---2--|-10--10--10--10--|

x2

|-----------------|-----------------|
|-----------------|-----------------|
|-----------------|-----------------|
|--7---7---7---7--|-11--11--11--11--|
|--7---7---7---7--|-11--11--11--11--|
|--5---5---5---5--|--9---9---9---9--|

|-----------------|-----------------|
|-----------------|-----------------|
|-11--11--11--11--|--7---7---9---9--|
|-11--11--11--11--|--7---7---9---9--|
|--9---9---9---9--|--5---5---7---7--|
|-----------------|-----------------|

x2


Bridge
|-----|
|-----|
|--4--|
|--4--|
|--2--|
|-----|


Chorus
|-----|
|-----|
|-----|
|--7--|
|--7--|
|--5--|

|-----------------|-----------------|
|-----------------|-----------------|
|-----------------|-----------------|
|--7---7---7---7--|-11--11--11--11--|
|--7---7---7---7--|-11--11--11--11--|
|--5---5---5---5--|--9---9---9---9--|

|-----------------|-----------------|
|-----------------|-----------------|
|-----------------|-----------------|
|--4---4---4---4--|-12--12--12--12--|
|--4---4---4---4--|-12--12--12--12--|
|--2---2---2---2--|-10--10--10--10--|

x2

|-----------------|-----------------|
|-----------------|-----------------|
|-----------------|-----------------|
|--7---7---7---7--|-11--11--11--11--|
|--7---7---7---7--|-11--11--11--11--|
|--5---5---5---5--|--9---9---9---9--|

|-----------------|-----------------|
|-----------------|-----------------|
|-11--11--11--11--|--7---7---9---9--|
|-11--11--11--11--|--7---7---9---9--|
|--9---9---9---9--|--5---5---7---7--|
|-----------------|-----------------|

x2

This is played by a second guitar over the outro:
|----------------------------------------------------|
|---10----------10----------10-----------------------|
|-------9--7--6----9--7--6------9--7--6--4--2--4--6--|
|----------------------------------------------------|
|----------------------------------------------------|
|----------------------------------------------------|


Outro
|-----------------|-----------------|
|-----------------|-----------------|
|-----------------|-----------------|
|--7---7---7---7--|-11--11--11--11--|
|--7---7---7---7--|-11--11--11--11--|
|--5---5---5---5--|--9---9---9---9--|

|-----------------|-----------------|
|-----------------|-----------------|
|-----------------|-----------------|
|--4---4---4---4--|-12--12--12--12--|
|--4---4---4---4--|-12--12--12--12--|
|--2---2---2---2--|-10--10--10--10--|

x2

|-----------------|-----------------|
|-----------------|-----------------|
|-----------------|-----------------|
|--7---7---7---7--|-11--11--11--11--|
|--7---7---7---7--|-11--11--11--11--|
|--5---5---5---5--|--9---9---9---9--|

|-----------------|-----------------|
|-----------------|-----------------|
|-11--11--11--11--|--7---7---9---9--|
|-11--11--11--11--|--7---7---9---9--|
|--9---9---9---9--|--5---5---7---7--|
|-----------------|-----------------|

x2

|--------------------------------------------|
|--------------------------------------------|
|-----------2--------------------------------|
|--4--2--4------4--2-------------------------|
|----------------------4---4--4--2--4--2-----|

Other versions of So What

So whatChords
So whatTabs
So what (Ver. 2)Tabs
So what - introTabs

Almost there ...

Sign in to get your own page with links to favourite songs and more. You are just one click away...

Login with Facebook Login with Google