Log in

One click and you are in

Login with Facebook Login with Google

Why sign up and log in

Guitar Tabs Explorer
P!nk tabs for So what (Ver. 2)

Guitar tabs

(INTRO AND VERSE)
E-|----------------------------------------------------------------|
B-|----------------------------------------------------------------|
G-|----------------------------------------------------------------|
D-|-----------7----------------------------------------------------|  x9
A-|--9--7--9-----9--7----------------------------------------------|
D-|--------------------9--9--7--9--9--7--2-------------'”-----------|

                            (CHORUS)

E-|----------------------------------------------------------------|
B-|----------------------------------------------------------------|
G-|----------------6-6-6-6-6-6-----------------7-7-7-7-7-7---------|
D-|--7-7-7-7-7-7---6-6-6-6-6-6---4-4-4-4-4-4---7-7-7-7-7-7---------|  x4
A-|--7-7-7-7-7-7---4-4-4-4-4-4---4-4-4-4-4-4---5-5-5-5-5-5---------|
D-|--5-5-5-5-5-5--------------'”--2-2-2-2-2-2-----------------------|

                            (VERSE)

E-|----------------------------------------------------------------|
B-|----------------------------------------------------------------|
G-|----------------------------------------------------------------|
D-|-----------7----------------------------------------------------|  x4
A-|--9--7--9-----9--7----------------------------------------------|
D-|--------------------9--9--7--9--9--7--2-------------'”-----------|


                            (CHORUS)

E-|----------------------------------------------------------------|
B-|----------------------------------------------------------------|
G-|----------------6-6-6-6-6-6-----------------7-7-7-7-7-7---------|
D-|--7-7-7-7-7-7---6-6-6-6-6-6---4-4-4-4-4-4---7-7-7-7-7-7---------|  x4
A-|--7-7-7-7-7-7---4-4-4-4-4-4---4-4-4-4-4-4---5-5-5-5-5-5---------|
D-|--5-5-5-5-5-5--------------'”--2-2-2-2-2-2-----------------------|

This is the best I can do, I hope its alright but I might have forgotten a verse or something

Other versions of So What

So whatChords
So whatTabs
So what (Ver. 3)Tabs
So what - introTabs

Almost there ...

Sign in to get your own page with links to favourite songs and more. You are just one click away...

Login with Facebook Login with Google