Log in

One click and you are in

Login with Facebook Login with Google

Why sign up and log in

Guitar Tabs Explorer
P!nk tabs for Im not dead

Guitar tabs

Tabbed by: Robs (obstsaft)

Standard Tuning

So now here's the version with powerchords (i think that's how it's played)and without capo. Have fun.


INTRO

|-----------------------------------------------------------------|
|-----------------------------------------------------------------|
|-5-5-5-5-5-5-5-5-----------------8-8-8-8-8-8-8-8-----------------|
|-5-5-5-5-5-5-5-5-6-6-6-6-6-6-6-6-8-8-8-8-8-8-8-8-8-8-8-8-8-8-8-8-|
|-3-3-3-3-3-3-3-3-6-6-6-6-6-6-6-6-6-6-6-6-6-6-6-6-8-8-8-8-8-8-8-8-|
|-----------------4-4-4-4-4-4-4-4-----------------6-6-6-6-6-6-6-6-|

play that 2x


VERSE:

|-----------------------------------------------------------------|
|-----------------------------------------------------------------|
|-5-5-5-5-5-5-5-5-----------------8-8-8-8-8-8-8-8-----------------|
|-5-5-5-5-5-5-5-5-6-6-6-6-6-6-6-6-8-8-8-8-8-8-8-8-8-8-8-8-8-8-8-8-|
|-3-3-3-3-3-3-3-3-6-6-6-6-6-6-6-6-6-6-6-6-6-6-6-6-8-8-8-8-8-8-8-8-|
|-----------------4-4-4-4-4-4-4-4-----------------6-6-6-6-6-6-6-6-|

play that 4x (same like intro)


BRIDGE:

(And I was never looking for approval...)
|-----------------------------------------------------------------|
|-----------------------------------------------------------------|
|-5-5-5-5-5-5-5-5-5-5-5-5-5-5-5-5---------------------------------|
|-5-5-5-5-5-5-5-5-5-5-5-5-5-5-5-5-6-6-6-6-6-6-6-6-6-6-6-6-6-6-6-6-|
|-3-3-3-3-3-3-3-3-3-3-3-3-3-3-3-3-6-6-6-6-6-6-6-6-6-6-6-6-6-6-6-6-|
|---------------------------------4-4-4-4-4-4-4-4-4-4-4-4-4-4-4-4-|

|-----------------------------------------------------------------|
|-----------------------------------------------------------------|
|-8-8-8-8-8-8-8-8-----------------5-5-5-5-5-5-5-5-----------------|
|-8-8-8-8-8-8-8-8-8-8-8-8-8-8-8-8-5-5-5-5-5-5-5-5-6-6-6-6-6-6-6-6-|
|-6-6-6-6-6-6-6-6-8-8-8-8-8-8-8-8-3-3-3-3-3-3-3-3-6-6-6-6-6-6-6-6-|
|-----------------6-6-6-6-6-6-6-6-----------------4-4-4-4-4-4-4-4-|


CHORUS:

Now here i'm still not sure, but the chords for the chorus are

A chord diagramC majorC   A chord diagramG+G   A chord diagramFF  (barré)


VERSE 2 and so on just like the others ;-) listen to the song and you'll get it!

Other versions of I'm Not Dead

I'm not deadChords

Almost there ...

Sign in to get your own page with links to favourite songs and more. You are just one click away...

Login with Facebook Login with Google