Log in

One click and you are in

Login with Facebook Login with Google

Why sign up and log in

Guitar Tabs Explorer
P!nk bass tabs for Bad influence

Bass tabs

Tabbed By : TN :)


Tuning: Standard

here we go
intro
G|----------------------------------------------------------------------|
D|--2--22--2--22-222------------------2--22--2--22-222------------------|
A|-------------------5--55--5--55-555------------------5--55--5--55-555-|
E|----------------------------------------------------------------------|


verse

G|----------------------------------------------------------------------|
D|--2--22--2--22-222------------------2--22--2--22-222------------------| X 2
A|-------------------5--55--5--55-555------------------5--55--5--55-555-|
E|----------------------------------------------------------------------|


pre chorus
G|----------------|
D|----------------|
A|-----3~-----3~--|
E|--222----222----|


chorus
G|----------------------------------------------------------------------|
D|--2--22--2--22-222------------------2--22--2--22-222------------------|
A|-------------------5--55--5--55-555------------------22-222-3~--------|
E|----------------------------------------------------------------------|

G|----------------------------------------------------------------------|
D|--2--22--2--22-222------------------2--22--2--22-222------------------|
A|-------------------5--55--5--55-555------------------5--55--5--55-555-|
E|----------------------------------------------------------------------|

verse
G|----------------------------------------------------------------------|
D|--2--22--2--22-222------------------2--22--2--22-222------------------| X 2
A|-------------------5--55--5--55-555------------------5--55--5--55-555-|
E|----------------------------------------------------------------------|


pre chorus
G|----------------|
D|----------------|
A|-----3~-----3~--|
E|--222----222----|


chorus
G|----------------------------------------------------------------------|
D|--2--22--2--22-222------------------2--22--2--22-222------------------|
A|-------------------5--55--5--55-555------------------22-222-3~--------|
E|----------------------------------------------------------------------|

G|----------------------------------------------------------------------|
D|--2--22--2--22-222------------------2--22--2--22-222------------------|
A|-------------------5--55--5--55-555------------------5--55--5--55-555-|
E|----------------------------------------------------------------------|

rest during bridge


chorus
G|----------------------------------------------------------------------|
D|--2--22--2--22-222------------------2--22--2--22-222------------------|
A|-------------------5--55--5--55-555------------------22-222-3~--------|
E|----------------------------------------------------------------------|

G|----------------------------------------------------------------------|
D|--2--22--2--22-222------------------2--22--2--22-222------------------|
A|-------------------5--55--5--55-555------------------22-222-3~--------|
E|----------------------------------------------------------------------|

G|----------------------------------------------------------------------|
D|--2--22--2--22-222------------------2--22--2--22-222------------------|
A|-------------------5--55--5--55-555------------------5--55--5--55-555-|
E|----------------------------------------------------------------------|

end on
G|-----|
D|--2--|
A|-----|
E|-----|


| / slide up
| \ slide down
| h hammer-on
| p pull-off
| ~ vibrato
| + harmonic
| x Mute note

Almost there ...

Sign in to get your own page with links to favourite songs and more. You are just one click away...

Login with Facebook Login with Google