Log in

One click and you are in

Login with Facebook Login with Google

Why sign up and log in

Guitar Tabs Explorer
Pinback bass tabs for Walters

Bass tabs

Verse 1: "You made your mark on me"
G|--12-----10-9-------------------------------------------------------------------|
D|-----8-8------8-8-10----10----10----10----10---10--10--10--10--10--10--10--10---| x10
A|---------------------12----12----12----10---------------------------------------|
E|---------------------------------------------8---8---8---8---8---8---8---8------|


Verse 2: "Larry climbs into his lawn chair"
G|--13-13-------13-13-------13-13-------13-13--------------------------------|
D|--------11-11-------11-13--------------------------------------------------| x12
A|--------------------------------15-15-------15-15--------------------------|
E|--9--9--------9--9--------13-13-------13-13--------------------------------|


Verse 3: "Get me down"
G|---------13-13--13---------13-13-------------------------------------------|
D|--11-11--11-11--11--15-15--15-15-10-10-------------------------------------| x14
A|---------------------------------------------------------------------------|
E|--9--9---9--9---9---13-13--13-13-8--8--------------------------------------|


Verse 2: (Very briefly at the end)
G|--13-13-------13-13-------13-13-------13-13--------------------------------|
D|--------11-11-------11-13--------------------------------------------------| x2
A|--------------------------------15-15-------15-15--------------------------|
E|--9--9--------9--9--------13-13-------13-13--------------------------------|

Almost there ...

Sign in to get your own page with links to favourite songs and more. You are just one click away...

Login with Facebook Login with Google