Log in

One click and you are in

Login with Facebook Login with Google

Why sign up and log in

Guitar Tabs Explorer
Pinback tabs for Tripoli

Guitar tabs

Tabbed by: David Dunn

This is the tablature to one of pinback's best songs, Tripoli.  This is the

main riff, or my best interpretation of it.  PLEASE BUILD ON IT.  More pinback
tabs = more happy people.
e------------------------------------------------------------------
B------------------------------------------------------------------
G------------------------------------------------------------------
D------------------------------------------------------------------
A-5---5-----7---7------9----9--------12----------------------------
E---7---------9----------10------12-----12-------------------------


e------------------------------------------------------------------
B------------------------------------------------------------------
G------------------------------------------------------------------
D------------------------------------------------------------------
A-10------10-----9------9----10----10---7---7----------------------
E-----12------------10---------10---------9------------------------


That's it for now....please email me if you have any tabs or
suggestions..d5@umbc.edu

Almost there ...

Sign in to get your own page with links to favourite songs and more. You are just one click away...

Login with Facebook Login with Google