Log in

One click and you are in

Login with Facebook Login with Google

Why sign up and log in

Guitar Tabs Explorer
Pinback bass tabs for Tripoli

Bass tabs

this is all my work

artist:pinback
album:self titled
track:tripoli
transcriber:tan

This riff is played on bass live. Have fun stretching
those fingers.

G|7---7---9----9---11----11---14----14---12----12---
D|--9-------11--------12---------14---------14------
A|-----------------9----------12---------10---------
E|10------9-----------------------------------------

G|11----11---11----11---9----9--
D|---12---------12--------12----
A|9-----------------------------
E|--------12-9--------9-9-------

Almost there ...

Sign in to get your own page with links to favourite songs and more. You are just one click away...

Login with Facebook Login with Google