Log in

One click and you are in

Login with Facebook Login with Google

Why sign up and log in

Guitar Tabs Explorer
Pinback tabs for This train

Guitar tabs

Album: This Is A Pinback Tour EP
Tabbed By: Jeremy Grebner (jgrebner@bellsouth.net)
 
Pretty straight forward song.
 
Part 1
e---------------------------------------
b------------9--12-12/14--12-9-12-12/14-
g-13-11-9-11----------------------------
d---------------------------------------
a---------------------------------------
e---------------------------------------
 
Part 2 (led into from part 1)
e------------
b--9-9-9-9---
g---9---9----
d-----9---9--
a------------
e------------
 
Part 3 ('strumming' during the verse)
e---------------
b---------------
g---------------
d---------------
a----4--6--4----
e-0--4--4--4----
 
Part 4
e--------------------------------------
b-0-0-0-0-1-1-1-1-0--------------------
g--1-1-1-1-1-1-1-1-1-1-4-4---1---------
d-------------------2---4-4--1---------
a--------------------------------------
e--------------------------------------
 
Comments, suggestions, etc to jgrebner@bellsouth.net

Almost there ...

Sign in to get your own page with links to favourite songs and more. You are just one click away...

Login with Facebook Login with Google