Log in

One click and you are in

Login with Facebook Login with Google

Why sign up and log in

Guitar Tabs Explorer
Pinback tabs for Talby

Guitar tabs

Album : Blue Screen Life
Song  : Talby

Transcribed by Chris Rockwell - rockfusion@hotmail.com

Dropped A chord diagramD MajorD tuning
INTRO:
Once again the guitars are layered

e----------------------------|
B---------------------0------|
G---------------------0------|Play 4x
D------5-5/7----7-7^5-0------|
A----2--------0----(0)-------|
D--2----(2)------------------|

Then this comes in over the above riff

e---------------------0------|
B---------------------0------|
G---------------------4------|
D------9\-5-7--7--7^5-5------|
A----0-----------------------|
D--9-------------------------|


VERSE 1:
e---------------------------------|
B---------------------------------|
G----------------------5/9--4-2/4-|
D------5-4-2-----2----------------|Play 2x
A----2-----0-2-3-----2------0-----|
D--2---------------2--------------|

e----------------------------|
B--------------------0-------|
G--------------------0-------|Play this over the above riff
D------5-5/7-7---7^5---5\2---|
A----2-----------------------|
D--2----(2)------------------|

CHORUS:
"Play that song again and go to hell when you die"
"Wave goodbye to you as you tune your guitars"
e--------------------------------------------------------|
B--------------------------------------------------------|
G--------------------------------------------------------|
D---2--2--2-2-2--2-2--2--2-2--0-5-5--5-5-5-5-0-4-4-4-0---|
A---3--3--3-3-3--3-3--3--3-3--0-2-2--2-2-2-2-0-0-0-0-0---|
D---5--5--5-5-5--5-5--5--5-5----2-2--2-2-2-2---0-0-0-0---|

Play this over the above riff

e-----------------------------------------------|
B-----------------------------------------------|
G----------------9------------------------------|
D--------9----10---10-9------9------5^4---------|
A-----10---10-10-----------7---7\---5---5-------|
D--10--------------------7----------0-----0-----|


BRIDGE/OUTRO:
"And we played and you watched and you yelled at the drummer"
e-----------------------------------------------|
B-----------------------------------------------|
G-----------------------------------------------|
D-------0---------0--------0-------0------------|
A-----7----7----7----7---7---7---7---7----------|
D--10--------10--------9-------7----------------|

Almost there ...

Sign in to get your own page with links to favourite songs and more. You are just one click away...

Login with Facebook Login with Google