Log in

One click and you are in

Login with Facebook Login with Google

Why sign up and log in

Guitar Tabs Explorer
Pinback tabs for Penelope

Guitar tabs

CD: Blue Screen Life
Transcriber: Razz

repeat over and over and over again:
(You might what to lightly mute d and g to get a better sound)

e |-------------0------------------------|
b |---------0-----0----------------0---0-|
g |------0p---0----------------0p----0---|
d |----2p-2p-----------------2p-2p-------|
a |-(repeat 3 times)---------------------|
e |--------------------------------------|
SOLO (I think there might be 2 guitars so it might sound a little off.
At the end the second guitar plays something different):

e |-------------------------------------------------------------|
b |-------------------------------------------------------------|
g |-------------------------------------------------------------|
d |9-9-9-9-9-9-9-9-10-10-9-9-------4-4-4-4-4-4-4-5-4-7--4/5\4-9-|
a |-------------------------9-10-9-------5---2------------------|
e |-------------------------------------------------------------|

e |-------------------------------------|
b |-------------------------------------|
g |-------------------------------------|
d |------4-5-4-2--4/5\4-2--4/5\4--------|
a |-------------------------------------|
e |-------------------------------------|


Thats it in a nut shell... Have Fun!!!!!
please no suggestion, only question, its for you to toy with..
More from this CD to come, I have to find time to do it, and its
the only CD I have!
email: jrazman08@hotmail.com

Almost there ...

Sign in to get your own page with links to favourite songs and more. You are just one click away...

Login with Facebook Login with Google