Log in

One click and you are in

Login with Facebook Login with Google

Why sign up and log in

Guitar Tabs Explorer
Pinback tabs for Offline p k

Guitar tabs

CD: Blue Screen Life
Transcriber: Razz

(repeat two times)

e |----------------------------------------------------|
b |----------------------------------------------------|
g |--4-4-6-6-4-4-6-6-7-7-4-4-6-6-----------------------|
d |----------------------------------------------------|
a |----------------------------------------------------|
e |----------------------------------------------------|

(repeat four times)

e |----------------------------------------------------|
b |----------------------------------3-----------------|
g |--4-4-6-6-4-4-6-6-7-7-4-4-6-6--4---4-4--------------|
d |------------------------------5-----5-5-------------|
a |----------------------------------------------------|
e |----------------------------------------------------|

(chord, there are different chord beats, firgure it out)

e |--0-0---|
b |--3-3---|
g |--4-4---|
d |--5-5---|
a |--------|
e |--------|

(repeat twice)

e |-------------------------------------------|
b |----------------------------------3----0-2-|
g |--4-4-6-6-4-4-6-6-7-7-4-4-6-6--4---4-4-----|
d |------------------------------5-----5------|
a |-------------------------------------------|
e |-------------------------------------------|

(repeat twice)

e |-----------------------------------------------|
b |----------------------------------3----5-7/8\7-|
g |--4-4-6-6-4-4-6-6-7-7-4-4-6-6--4---4-4---------|
d |------------------------------5-----5----------|
a |-----------------------------------------------|
e |-----------------------------------------------|

go back to chords


email: jrazman08@hotmail.com

Almost there ...

Sign in to get your own page with links to favourite songs and more. You are just one click away...

Login with Facebook Login with Google