Log in

One click and you are in

Login with Facebook Login with Google

Why sign up and log in

Guitar Tabs Explorer
Pinback bass tabs for Non photo-blue

Bass tabs

Verse: "Shes's posting all the time"
G|-----4---------4---------7---------4---------------------------------------|
D|-----5---------5---------9---------5---------------------------------------| x10
A|----------------------------9-7-7------------------------------------------|
E|--3-----5-3-3-----5-7-7---------------5-3----------------------------------|


Chorus: "Don't do this man"
G|--11--------------------------------------11-11-11-12-11--9---9--9--9--11-11--|
D|--9--12-9--12---12--12-12---12--12-12-----12-12-12-12-11--11--11-11-11-11-11--| x4
A|--10-10-10-10---10--10-10---9---9--9------------------------------------------|
E|---------------------------------------10-----------------9-------------------|


Verse: "She just ignores the time"
G|-----4---------4---------7---------4---------------------------------------|
D|-----5---------5---------9---------5---------------------------------------| x11
A|----------------------------9-7-7------------------------------------------|
E|--3-----5-3-3-----5-7-7---------------5-3----------------------------------|


Chorus: "Can't go through this now"
G|--11-----------------------------------------11-11-12-11------9--9--9--11-11--|
D|--9--12-9--12---12--12-12---12--12-12-----12-12-12-12-11--11--11-11-11-11-11--| x6
A|--10-10-10-10---10--10-10---9---9--9------------------------------------------|
E|---------------------------------------10-----------------9-------------------|

Almost there ...

Sign in to get your own page with links to favourite songs and more. You are just one click away...

Login with Facebook Login with Google