Log in

One click and you are in

Login with Facebook Login with Google

Why sign up and log in

Guitar Tabs Explorer
Pinback tabs for Messenger

Guitar tabs

Album : Ace Fu Promo
Song  : Messenger

Transcribed by Chris Rockwell - rockfusion@hotmail.com

Dropped A chord diagramD MajorD tuning
INTRO:

e-------------------------------|
B-------------------------------|
G-------------------------------|
D--1-3-X-5--5-5-0--3-3----------|
A-----------5-5-0--3-3------3---|
D------------------3-3--3-3-3---|
                      PM...

Play this over the above riff:
e-------------------------------|
B-------------------------------|
G-------------------------------|
D--------1-(1)--0--3-3----------|
A--------1-(1)--0--3-3------3---|
D--6-6\1-1-(1)-----3-3--3-3-3---|
       PM             PM...

Then the really chill part kicks in
These next few riffs are all layered:

e-------------------------------|
B-------------------------------|
G-------------------------------|
D--6-----1-1---3----------------|
A--6-6\--1-1--/3-3-------3------|
D--6-6\--1-1--/3-3---3-3-3------|
                     PM..

e------------------||----------------|
B--8-(8)-8-(8)-8---||----------------|
G--5/8---5\3---5---||---5/8--5\3-2---|
D------------------||----------------|
A------------------||----------------|
D------------------||----------------|

e------------------|
B------------------|
G--5-5-X-X-5-5-X-X-|
D--3-3-X-X-3-3-X-X-|
A------------------|
D------------------|
  PM...............

Almost there ...

Sign in to get your own page with links to favourite songs and more. You are just one click away...

Login with Facebook Login with Google