Log in

One click and you are in

Login with Facebook Login with Google

Why sign up and log in

Guitar Tabs Explorer
Pinback tabs for Hurley1

Guitar tabs

Drop A chord diagramD MajorD

The opening riff goes like this...

e--------------------------------------------------
B--------------------------------------------------
G--------------------------------------------------
D-------0---------2-0------------------------------
A---0h2---0h2p0------------------------------------
D-0-------------0----------------------------------


e--------------------------------------------------
B-------------3/5-3--------------------------------
G---------0h2--------------------------------------
D-----0h4------------------------------------------
A---2----------------------------------------------
D-0------------------------------------------------

cant figure out the next part but other part goes like this


e--------------------------------------------------
B-----2/4-2----------------------------------------
G-1h3-------1-----1---1----------------------------
D---------------3---3------------------------------
A--------------------------------------------------
D--------------------------------------------------

sorry will have more when i get better

Other versions of Hurley1

HurleyTabs

Almost there ...

Sign in to get your own page with links to favourite songs and more. You are just one click away...

Login with Facebook Login with Google