Log in

One click and you are in

Login with Facebook Login with Google

Why sign up and log in

Guitar Tabs Explorer
Pinback bass tabs for Concrete seconds

Bass tabs

this is all my own work

artist:pinback
album:blue screen life
song:concrete seconds
transcriber:tan

------13---11----11---------
--------------14----14------
12-12-----------------------
----------------------------

--------------------------------------------------
------11---9----9-------------11---9----9---------
-------------12---12-----------------12---12------
10-10---------------------9-9---------------------

Almost there ...

Sign in to get your own page with links to favourite songs and more. You are just one click away...

Login with Facebook Login with Google