Log in

One click and you are in

Login with Facebook Login with Google

Why sign up and log in

Guitar Tabs Explorer
Pinback bass tabs for Bouquet

Bass tabs

  • Difficulty: Advanced
Tuning: Standard (E A D G)


Verse 1: "I adjust the time, For you to be here"
G|-----10-10---10---9-9---9-----5-5---5--------------------------------------|
D|----------------------------------------12-12----9-9-----------------------|
A|----------------------------------------------10---------------------------|
E|--10------------8-----------5---------8------------------------------------|

Verse 2: "And it's the note that stings, And it's the prose that sticks"
G|-----10-10---10---9--9---9----5-5---5--------------------------------------|
D|-----12-12---12---10-10--10---7-7---7---12-12----9-9-----------------------|
A|----------------------------------------------10---------------------------|
E|--10-10-10---10-8-8--8---8--5-5-5---5-8------------------------------------|


Verse 1:
G|-----10-10---10---9-9---9-----5-5---5--------------------------------------|
D|----------------------------------------12-12----9-9-----------------------|
A|----------------------------------------------10---------------------------|
E|--10------------8-----------5---------8------------------------------------|


Pre-Chorus: "And to no surprise, There'll be no surprise"
G|---------------------------------------------------------------------------|
D|---------------------------------------------------------------------------|
A|---------------------------------------------------------------------------|
E|--10---8---5---------------------------------------------------------------|


Chorus: "Reflecting eyes upon the surface, What's beneath the water trailing out from sea"
G|--------10--12----9-----9-----9--------------------------------------------|
D|-----12-----10----10-12---12--10-12-9-10-----------------------------------|
A|------------8-----------------10-------------------------------------------|
E|--10--------------8--------------------------------------------------------|


Verse 1: "Please break the pattern, oh, Don't go, don't go"
G|-----10-10---10---9-9---9-----5-5---5--------------------------------------|
D|----------------------------------------12-12----9-9-----------------------|
A|----------------------------------------------10---------------------------|
E|--10------------8-----------5---------8------------------------------------|


Chorus: "It's sucking on the more than the worthless, Swept under the blanket, That's where you met me"
G|--------10--12----9-----9-----9--------------------------------------------|
D|-----12-----10----10-12---12--10-12-9-10-----------------------------------|
A|------------8-----------------10-------------------------------------------|
E|--10--------------8--------------------------------------------------------|


Outro: "Gone for good, And you taste my tears"
G|-----17-----17----13----13-------------------------------------------------|
D|--13-13--15-15-------17----17-15-17----------------------------------------|
A|---------------15----------------------------------------------------------|
E|--11-11--13-13-------------------------------------------------------------|

Almost there ...

Sign in to get your own page with links to favourite songs and more. You are just one click away...

Login with Facebook Login with Google