Log in

One click and you are in

Login with Facebook Login with Google

Why sign up and log in

Guitar Tabs Explorer
Pinback tabs for Boo

Guitar tabs

CD: Blue Screen Life
Transcriber: Razz


intro(repeat some)

e |----------------------------------------------------|
b |----------------------------------------------------|
g |-7----7-------7--10-10/12\7---7-----7--10-5-10-7----|
d |--8----8-7-8---8-------------8-7-8---8--------------|
a |----------------------------------------------------|
e |----------------------------------------------------|

middle part is something like this (repeat)

e |----------------------------------------------------|
b |---1-3-1---------0-3-0-0----------------------------|
g |--0-----2-0-2---2------2-2-0-0----------------------|
d |-0---------3-3-3-------3----------------------------|
a |----------------------------------------------------|
e |----------------------------------------------------|

end goes somthing like this (repeat)

e |-------------------------------------|
b |---------5\1--3-3-3------------------|
g |--2-0-0-------2-2-2------------------|
d |-3---3-0------3-3-1------------------|
a |-------------------------------------|
e |-------------------------------------|


email: jrazman08@hotmail.com

Almost there ...

Sign in to get your own page with links to favourite songs and more. You are just one click away...

Login with Facebook Login with Google