Log in

One click and you are in

Login with Facebook Login with Google

Why sign up and log in

Guitar Tabs Explorer
Pinback bass tabs for Bbtone

Bass tabs

Tuning: Standard (E A D G)

-The Parts

🎸 Intro:

G|---------------------------------------------------------------------------|
D|--9/10------10/12----12/14----7/9------------------------------------------|
A|----------------------------------------10---------------------------------|
E|---------------------------------------------------------------------------|
G|---------------------------------------------------------------------------|
D|--9/10------10/12----12/14----7/9------------------------------------------|
A|---------------------------------------------------------------------------|
E|---------------------------------------------------------------------------|


🎸 Verse:

G|--14h16--14------12h14--14--------14h16--14---------------------------------|
D|-------------14------------------------------14--12h14--14------------------|
A|--15-----15------12-----12--------15-----15---------------------------------|
E|-------------------------------------------------12-----12------------------|

G|--14h16--14------12h14--14--------16p14--12--14--12-------------------------|
D|-------------14-------------------------------------------------------------|
A|--15-----15------12-----12--------15---------12--12-------------------------|
E|----------------------------------------------------------------------------|

Repeat this entire verse part twice

End second time with:

G|----------------------------------------------------------------------------|
D|------9------10------10-----------------------------------------------------|
A|-------------------------12-------------------------------------------------|
E|--10-----10------10---------------------------------------------------------|

🎸 Pre-Chorus:

G|----0---0----------|    |----2---2----------|
D|------0---0--0-----|    |------0---0--0-----|
A|--3-------------3--| x2  |--3-------------3--| x2
E|-------------------|    |-------------------|

G|----4---4----------|    |----4---4----------|
D|------0---0--0-----|    |------0---0--0-----|
A|--0-------------0--| x2  |--2-------------2--| x2
E|-------------------|    |-------------------|


🎸 Chorus:

G|--19---16---16---16----14--14-14--17-17----|
D|--17---17---19---17----12--12-12--15-15----|
A|--15---15---15---15----10--10-10--13-13----|
E|-------------------------------------------|

G|--19---16---16---16----14--14-14-----------|
D|--17---17---19---17----12--12-12--14-14----|
A|--15---15---15---15----10--10-10--12-12----|
E|----------------------------------10-10----|

G|--19---16---16---16----14--14-14--17-17----|
D|--17---17---19---17----12--12-12--15-15----|
A|--15---15---15---15----10--10-10--13-13----|
E|-------------------------------------------|

G|--19---16---16---16----14--14-14-----------|
D|--17---17---19---17----12--12-12--14-------|
A|--15---15---15---15----10--10-10--12-------|
E|----------------------------------10-10-12-|


-The Order of the Parts in the Song

Starts at 0:21

Intro x1


Verse x1


Pre-Chorus x1 - The end of this is cut off by the next verse starting.


Verse x1


Pre-Chorus x2


Chorus x1


Intro x1


Verse - shortend to only go through 1 cycle instead of 2


Pre-Chorus x1


Chorus x4


************************************

| / Slide up
| h Hammer-on
| p Pull-off


************************************

Almost there ...

Sign in to get your own page with links to favourite songs and more. You are just one click away...

Login with Facebook Login with Google