Log in

One click and you are in

Login with Facebook Login with Google

Why sign up and log in

Guitar Tabs Explorer
Pinback tabs for Anti-hu

Guitar tabs

Not 100% Sure at all but really needed to find out how that intro was played. Just
25 minutes and a working brain and here tis. Have Fun

        Tuning: 1/2 step down
                (A chord diagramEb MajorEb A chord diagramAbAb A chord diagramDbDb A chord diagramGbGb A chord diagramBb majorBb A chord diagramEb MajorEb)
           e|-------------------------------------|
           A chord diagramBB|-------------------------------------|
   Intro   A chord diagramG+G|-------------------------------------|
           A chord diagramD MajorD|--9------7---------------------------|
           A chord diagramA augmentedA|----9-------5------------0---2--\----|
           A chord diagramE MajorE|----------------7---7----2---3--\----|


                      ||----------------------------|
                      ||----------------------------|
                      ||----------------------------|
        Main riff     ||----------------------------|
                      ||----9----5---\--0---2-------|
                      ||---10----7---\--2---3-------|


                      ||----------------------------||
                      ||----------------------------||
                      ||----------------------------||
    Variation         ||----------------------------||
                      ||----9----4---\--0---2-------||
                      ||---10----5---\--2---3-------||


                          e|-----------------------|
                          A chord diagramBB|-----------------------|
                          A chord diagramG+G|-----------------------|
  Intro played over       A chord diagramD MajorD|--9------7-------------|
      main riff           A chord diagramA augmentedA|----9-------5----------|
                          A chord diagramE MajorE|-----------------------|

Almost there ...

Sign in to get your own page with links to favourite songs and more. You are just one click away...

Login with Facebook Login with Google