Log in

One click and you are in

Login with Facebook Login with Google

Why sign up and log in

Guitar Tabs Explorer
Pillar bass tabs for State of emergency

Bass tabs

(Use a pick)


Intro:
F|----------------|
C|----------------|
G|----------------| (x8)
C|----------------|

F|----------------|----------------|------------------------|----------------|
C|----------------|----------------|------------------------|----------------|
G|----------------|----------------|------------------------|----------------| (x2)
C|0-0-0-0-0-0-0-0-|3-3-3-3-3-3-3-3-|10-10-10-10-10-10-10-10-|8-8-8-8-8-8-8-8-|
Verse 1: (0:32)
F|--------------------------------|--------------------------------|
C|--------------------------------|------------------------12--12--|
G|--------------------------------|--------------------------------|
C|0---0-------0-0---0-0-----------|0---0-------0-0---0-0-----------|

F|--------------------------------|--------------------------------|
C|--------------------------------|--------------------12--12--12--|
G|--------------------------------|--------------------------------| (x2)
C|0---0-------0-0---0-0-----------|0---0-------0-0---0-------------|

F|--------------------------------|--------------------------------|
C|--------------------------------|--------------------------------|
G|--------------------------------|--------------------------------|
C|0---0-------0-0---0-0-----------|0---0-------0-0---0-12--12--10--|


Verse 2: (0:48)
F|--------------------------------|--------------------------------|
C|--------------------------------|--------------------12--12--12--|
G|--------------------------------|--------------------------------|
C|0---0-------0-0---0-0-----------|0---0-------0-0---0-------------|

F|--------------------------------|--------------------------------|
C|--------------------------------|--------------------------------|
G|--------------------------------|--------------------------------|
C|0---0-------0-0---0-0-----------|0---0-------0-0---0-0-------0---|

F|--------------------------------|--------------------------------|
C|--------------------------------|--------------------12--12--12--|
G|--------------------------------|--------------------------------|
C|0---0-------0-0---0-0-----------|0---0-------0-0---0-------------|

F|--------------------------------|--------------------------------|
C|--------------------------------|--------------------------------|
G|--------------------------------|--------------------------------|
C|0---0-------0-0---0-0-----------|12--12--12--12--12--12--12--12\-|

Pre-Chorus: (1:05)
F|----------------|------------------------|----------------|----------------|
C|----------------|------------------------|----------------|----------------|
G|----------------|------------------------|----------------|----------------|
C|8-8-8-8-8-8-8-8-|10-10-10-10-10-10-10-10-|0-0-0-0-0-0-0-0-|3-3-3-3-3-3-3-3-|

F|----------------|------------------------|
C|----------------|------------------------|
G|----------------|------------------------|
C|8-8-8-8-8-8-8-8-|10-10-10-10-10-10-10----|


Chorus: (1:17)
F|----------------|----------------|------------------------|----------------|
C|----------------|----------------|------------------------|----------------|
G|----------------|----------------|------------------------|----------------|
C|0-0-0-0-0-0-0-0-|3-3-3-3-3-3-3-3-|10-10-10-10-10-10-10-10-|8-8-8-8-8-8-8-8-|

F|----------------|----------------|------------------------|----------------|
C|----------------|----------------|------------------------|----------------|
G|----------------|----------------|------------------------|----------------|
C|0-0-0-0-0-0-0-0-|3-3-3-3-3-3-3-3-|10-10-10-10-10-10-10-10-|7---7-----------|

Interlude: (1:33)
F|--------------------------------|--------------------------------|
C|--------------------------------|--------------------------------|
G|--------------------------------|--------------------------------|
C|0---0---12--------------10h12p10|--10\5--5---------------3h5p3---|

F|--------------------------------|--------------------------------|
C|--------------------------------|--------------------------------|
G|--------------------------------|--------------------------------|
C|--3/8---8---------------7h8p7---|--7-0---0-----------------------|


Verse 3: (1:41)
F|--------------------------------|--------------------------------|
C|--------------------------------|------------------------12--12--|
G|--------------------------------|--------------------------------|
C|0---0-------0-0---0-0-----------|0---0-------0-0---0-0-----------|

F|--------------------------------|--------------------------------------|
C|--------------------------------|--------------------------------------|
G|--------------------------------|--------------------------------------|
C|0---0-------0-0---0-0-----------|0---0-------0-0---0-12-12-12-12-10-10-|

F|--------------------------------|--------------------------------|
C|--------------------------------|--------------------12--12--12--|
G|--------------------------------|--------------------------------|
C|0---0-------0-0---0-0-----------|0---0-------0-0---0-------------|

F|--------------------------------|--------------------------------|
C|--------------------------------|--------------------------------|
G|--------------------------------|----5-----------5---3-----------|
C|0---0-------0-0---0-0-----------|0-------0---0-----------7---5---|


Pre-Chorus: (1:58)
F|----------------|------------------------|------------------------|----------------|
C|----------------|------------------------|------------------------|----------------|
G|----------------|------------------------|------------------------|8-8-8-8-8-8-8-7-|
C|8-8-8-8-8-8-8-8-|10-10-10-10-10-10-10-10-|12-12-12-12-12-12-12-12-|----------------|

F|----------------|------------------------|
C|----------------|------------------------|
G|----------------|------------------------|
C|8-8-8-8-8-8-8-8-|10-10-10-10-10-10-10----|


Chorus: (2:10)
F|----------------|----------------|------------------------|----------------|
C|----------------|----------------|------------------------|----------------|
G|----------------|----------------|------------------------|----------------|
C|0-0-0-0-0-0-0-0-|3-3-3-3-3-3-3-3-|10-10-10-10-10-10-10-10-|8-8-8-8-8-8-8-8-|

F|----------------|----------------|------------------------|----------------|
C|----------------|----------------|------------------------|----------------|
G|----------------|----------------|------------------------|----------------|
C|0-0-0-0-0-0-0-0-|3-3-3-3-3-3-3-3-|10-10-10-10-10-10-10-10-|7-7-7-7-7-7-7-7-|

F|----------------|----------------|------------------------|----------------|
C|----------------|----------------|------------------------|----------------|
G|----------------|----------------|------------------------|----------------|
C|0-0-0-0-0-0-0-0-|3-3-3-3-3-3-3-3-|10-10-10-10-10-10-10-10-|8-8-8-8-8-8-8-8-|

F|----------------|----------------|------------------------|----------------|
C|----------------|----------------|------------------------|----------------|
G|----------------|----------------|------------------------|----------------|
C|0-0-0-0-0-0-0-0-|3-3-3-3-3-3-3-3-|10-10-10-10-10-10-10-10-|7-7-7-7-7-7-7---|

Interlude: (2:42)
F|--------|--------|--------|--------|--------|--------|--------|----------------------|
C|--------|--------|--------|--------|--------|--------|--------|----------------------|
G|--------|--------|--------|--------|--------|--------|--------|----------------------|
C|0-------|(0)-----|3-------|(3)-----|8-------|(8)-----|10------|10-10-10-10-10\--10\--|


Bridge: (2:58)
F|----------------|----------------|----------------|----------------|
C|----------------|----------------|----------------|----------------|
G|----------------|----------------|----------------|----------------|
C|0-0-0-0-0-0-0-0-|0-0-0-0-0-0-0-0-|3-3-3-3-3-3-3-3-|3-3-3-3-3-3-3-3-|

F|----------------|----------------|------------------------|------------------------|
C|----------------|----------------|------------------------|------------------------|
G|----------------|----------------|------------------------|------------------------|
C|8-8-8-8-8-8-8-8-|8-8-8-8-8-8-8-8-|10-10-10-10-10-10-10-10-|10-10-10-10-10-10-10-10-|

F|----------------|------------------------|----------------|----------------|
C|----------------|------------------------|----------------|----------------|
G|----------------|------------------------|----------------|----------------| (x2)
C|8-8-8-8-8-8-8-8-|10-10-10-10-10-10-10-10-|0-0-0-0-0-0-0-0-|0-0-0-0-0-0-0-0-|

F|----------------|------------------------|
C|----------------|------------------------|
G|----------------|------------------------|
C|8-8-8-8-8-8-8-8-|10-10-------------------|


Chorus: (3:35)
F|----------------|----------------|------------------------|----------------|
C|----------------|----------------|------------------------|----------------|
G|----------------|----------------|------------------------|----------------|
C|0-0-0-0-0-0-0-0-|3-3-3-3-3-3-3-3-|10-10-10-10-10-10-10-10-|8-8-8-8-8-8-8-8-|

F|----------------|----------------|------------------------|----------------|
C|----------------|----------------|------------------------|----------------|
G|----------------|----------------|------------------------|----------------|
C|0-0-0-0-0-0-0-0-|3-3-3-3-3-3-3-3-|10-10-10-10-10-10-10-10-|7-7-7-7-7-7-7-7-|

F|----------------|----------------|------------------------|----------------|
C|----------------|----------------|------------------------|----------------|
G|----------------|----------------|------------------------|----------------|
C|0-0-0-0-0-0-0-0-|3-3-3-3-3-3-3-3-|10-10-10-10-10-10-10-10-|8-8-8-8-8-8-8-8-|

F|----------------|----------------|------------------------|----------------|
C|----------------|----------------|------------------------|----------------|
G|----------------|----------------|------------------------|----------------|
C|0-0-0-0-0-0-0-0-|3-3-3-3-3-3-3-3-|10-10-10-10-10-10-10-10-|7-7-7-7-7-7-7-7-|


Ending: (4:08)
F|--------------------------------|--------------------------------|
C|--------------------------------|--------------------------------|
G|--------------------------------|--------------------------------|
C|0---0---12--------------10h12p10|--10\5--5---------------3h5p3---|

F|--------------------------------|--------------------------------|
C|--------------------------------|--------------------------------|
G|--------------------------------|--------------------------------|
C|--3/8---8---------------7h8p7---|--7-0---0-----------------------|

F|--------------------------------|--------------------------------|
C|--------------------------------|--------------------------------|
G|--------------------------------|--------------------------------|
C|0-0-0-0-12--------------10h12p10|--10\5--5---------------3h5p3---|

F|--------------------------------|--------------------------------|
C|--------------------------------|--------------------------------|
G|--------------------------------|--------------------------------|
C|--3/8---8---------------7h8p7p0-|------------------------------0-|

F|--------------------------------|--------------------------------|
C|--------------------------------|--------------------------------|
G|--------------------------------|--------------------------------|
C|----0-------------------------0-|--0-0---0-----------------------|

(Let ring.)

************************************

| (n) Continuation of held note
| h  Hammer-on
| p  Pull-off
| /  Slide up
| \  Slide down

************************************

Almost there ...

Sign in to get your own page with links to favourite songs and more. You are just one click away...

Login with Facebook Login with Google