Log in

One click and you are in

Login with Facebook Login with Google

Why sign up and log in

Guitar Tabs Explorer
Pigface chords for Satellite

Guitar chords with lyrics

Bass:
e------------------------------------------|
B------------------------------------------|
G------------------------------------------|
D------------------------------------------|
A------------------------------------------|
E--0-0-0-0-0-0-0-0-0-0-3-3-3-3-3-3-3-3-3-3-|

yup...

guitar (comes in later. quite noticable)
e---------------------------|
B---------------------------|
G---------------------------|
D-2-2--5--2-2--5--2-5-7-----|
A-2-2--5--2-2--5--2-5-7-----|
E-0-0--3--0-0--3--0-3-5-----|

this plays almost comnstantly from now on.

I think the high part is like this.. but I'm not sure:

e--------------
B--------------
G--------------
D--------------
A-5/7----------
E--------------

it should be higher.. but it doesn't sound right when
I raise it an octave. who knows.
The rest of the variations on it are similar..
just fiddle.

In some (all ) live versions, this slow paced song
gets quite sped up.... the guitar part is just sped
up... turns into quite the rocker. yay.

that's it.


That's all I know right now...

Almost there ...

Sign in to get your own page with links to favourite songs and more. You are just one click away...

Login with Facebook Login with Google