Log in

One click and you are in

Login with Facebook Login with Google

Why sign up and log in

Guitar Tabs Explorer
Pigface tabs for 10 ground and down

Guitar tabs

by the one and only- PIGFACE!!!!

from the 1992 album Fook.
------------------------

okay. this is a cool song. It's also a VERY simple song.
Most Pigface is like that.

the main bassline is:
           V V           V V (The V's are accents)
e-7-7-7-7--7-7--8-8-8-8--8-8--|

I play it on guitar.... so do it like so:

            V V                 V  V
a--9-9-9-9--9-9---10-10-10-10--10-10--|
e--7-7-7-7--7-7----8--8--8--8---8--8--|

the only other significant part is a sort of violin-type sound... like this:

e----------------------------|
B----------------------------|
G--------------------------4-|
D-2--5-2-5-2-4--2--5-2-5-2---|
A----------------------------|
E----------------------------|

that's it

that's it homeboys... i'm going to do/have done some more... but I'd
appreciate some help... anyone.
e-mail for whatever reason...
James_Renihan@eyenet.eybe.edu.on.ca
ren

Almost there ...

Sign in to get your own page with links to favourite songs and more. You are just one click away...

Login with Facebook Login with Google