Log in

One click and you are in

Login with Facebook Login with Google

Why sign up and log in

Guitar Tabs Explorer
Pierce The Veil bass tabs for Bedless

Bass tabs

Tuning: Standard (E A D G)


Verse 1:

G|-------|------|------|---|
D|-----8-|------|-----4|---|
A|-------|------|------|---|
E|-6-6---|-4-4--|-2-2--|-4-|
G|------|------|------|-------|------|------|-------|-------------|
D|------|------|------|-------|------|------|-----6-|-8-6---6-8---|
A|---8--|-8-8--|---6--|-6-----|---4--|-4--4-|---8---|-----8-----8-|
E|-6--6-|--6-6-|-4--4-|---4-6-|-2--2-|---2--|-4-----|-------------|


Pre-Chorus:

G|------|---------|------|------------|--------|-----------------|---|-6-|
D|----4-|----4-3--|----6-|------------|--------|-----------------|---|---|
A|------|-------4-|------|----6-8-6-4-|--------|-----------------|---|---|
E|-2-2--|-2-2-----|-4-4--|-4-4--------|-6--6-6-|-6-4-6-4-9-8-6-4-|-9-|---|


Chorus:

G|-----------------|----------------|-----------------------------|---6-5---6-5-1-|
D|-----------------|4-4-4-4-4-4-4-4-|-----------------------------|---------------|
A|-------4-------4-|----------------|-6-6-6-6-6-6-6-6-6-6-6-6-6-8-|---------------|
E|-2-2-2---2-2-2---|----------------|-----------------------------|-9-----9-------|

G|---6-5---6-5-3--|-------------------------------3-|
D|----------------|-3-3-3-3-3-3-3-3-3-3-3-3-3-3-3---|
A|----------------|---------------------------------|
E|-9-----9--------|---------------------------------|


Verse 2: (comes in at 1:26)

G|-8-------|-8-------|-------------------|---------------|---------------|--------------|
D|---3-4-6-|---3-4-6-|-------------------|---------------|---------------|--------------|
A|---------|---------|-------------------|-8-6-4-6-4---4-|------8------8-|------8----8--|
E|---------|---------|-4-4-4-4-4-4-4-4-4-|-----------6---|-6-6----6-6----|-6-6----6-6-6-|

G|---------------|------------------|---------------|-----------|-------------------|----------|
D|---------------|--------8-6-3-----|---------------|-----------|-------------------|-8-6-6-8--|
A|------6------6-|------6-------6-4-|------4------4-|-----------|-------------------|----8---8-|
E|-4-4----4-4----|-4-4--------------|-2-2----2-2----|-2-2-2-1-2-|-4-4-4-4-4-4-4-4-4-|----------|


Pre-Chorus:

G|--------|--------|----------------|-------------------|
D|------4-|------6-|------------6-8-|-------------------|
A|--------|--------|--------6-8-----|-------------------|
E|-2--2---|-4--4---|-6--6-6---------|-6-6-6-6-6-6-6-6-6-|


Chorus:

G|-----------------|----------------|-------------------------8-8-|---6-5---6-5-1-|
D|-----------------|----------------|-----------------------------|---------------|
A|-----------------|----------------|-6-6-6-6-6-6-6-6-6-6-6-6-----|---------------|
E|-2-2-2-2-2-2-2-2-|-2-2-2-2-2-4-6--|-----------------------------|-9-----9-------|

G|---6-5---6-5-3--|---------------------------------|
D|----------------|-3-3-3-3-3-3-3-3-3-3-3-3-3-3-3-3-|
A|----------------|---------------------------------|
E|-9-----9--------|---------------------------------|


Bridge:

G|--------------|--------3-|--------------|--------6-5---|
D|-4---3-4----3-|-4--4-4---|-6---4-6----4-|-6---4-6----6-|
A|---4------4---|----------|---4------4---|---4----------|
E|--------------|----------|--------------|--------------|

G|--------------|---------------|---6-8-10-6---|--------------|
D|-3---1-3----1-|-3----1-3-6-6-6|-4----------4-|--------------|
A|---4------4---|----4----------|--------------|--------------|
E|--------------|---------------|--------------|--------------|


Bridge 2:

G|-----------------|-----------------|-----------------|-----------------|
D|-----------------|-----------------|-3-3-3-3-3-3-3-3-|-3-3-3-3-3-3-3-3-|
A|-4-4-4-4-4-4-4-4-|-4-4-4-4-4-4-4-4-|-----------------|-----------------|
E|-----------------|-----------------|-----------------|-----------------|

G|-------|-|-------|-5---|-------|-6-|-------|-----------------|
D|-------|-|-3-3-3-|---3-|-------|---|-3-3-3-|-3-3-3-3-3-3-3-3-|
A|-4-4-4-|-|-------|-----|-4-4-4-|---|-------|-----------------|
E|-------|-|-------|-----|-------|---|-------|-----------------|

G|---------|---------5-6-8-|---------|---------|
D|---------|-3--3--3-------|---------|-3-3-3-3-|
A|-4-4-4-4-|---------------|-4-4-4-4-|---------|
E|---------|---------------|---------|---------|



Pre-Chorus:

G|--------------|--------------|----------|------------------|----------|-------------------|---|-----|
D|--------------|--------------|----------|------------------|----------|-------------------|---|-3-3-|
A|--------------|--------------|----------|----------6-8-6-4-|----------|-------------------|---|-----|
E|-2-2--2-2--2-2|-2-2--2-2-1-2-|-4-4--4-4-|-4-4--4-4---------|-6-6--6-6-|-6-6--6-6--6-6-6-6-|-1-|-----|


Chorus:

G|-----------------|----------------|-----------------------------|---6-5---6-5-1-|
D|-----------------|-4-4-4-4--------|-----------------------------|---------------|
A|---------------4-|----------------|-6-6-6-6-6-6-6-6-6-6-6-6-6-8-|---------------|
E|-2-2-2-2-2-2-2---|---------2-4-6--|-----------------------------|-9-----9-------|

G|---6-5---6-5-3--|-----------------|--------------|
D|----------------|-----------------|3-3-3-3-3-1---|
A|----------------|-----------------|------------4-|
E|-9-----9--------|-1-1-1-1-1-1-1-1-|--------------|


Outro:

G|---|---|
D|-4-|-6-|
A|---|---|
E|---|---|

Almost there ...

Sign in to get your own page with links to favourite songs and more. You are just one click away...

Login with Facebook Login with Google