Log in

One click and you are in

Login with Facebook Login with Google

Why sign up and log in

Guitar Tabs Explorer
Wilson Pickett bass tabs for Ooh poo pah doo

Bass tabs with lyrics

Tuning: Standard (E A D G)

Key: E

Difficulty: Intermediate

OOH POO PAH DOO (Bassline)
As recorded by Wilson Pickett
(From the 1966 Album THE WICKED PICKETT)

Words and Music by Jessie Hill
Transcribed by Slowhand

Gtr I (E A D G) - 'Tommy Cogbill - Bass'

 Intro:        1st Verse:
 Q=114
 4/4
  Gtr I
  W     W      Q E E S S S S E E  Q E E S S S S E E
G|----------|----------||--------------------|--------------------|
D|----------|----------||--------------------|--------------------|
A|----------|----------||-7----7---7-7-------|-7----7---7-7-------|
E|-0--------|----------||--------------9-7-9-|--------------9-7-9-|


  Q E E S S S S E E  Q E E S S S S E E  Q E E S S S S E E
G|--------------------|---------------------|--------------------|
D|--------------------|---------------------|------7---7-7-------|
A|-7----7---7-7-------|-7----7---7-7--------|--------------9-7-9-|
E|--------------9-7-9-|--------------9-7-9\-|-5------------------|


  Q E E S S S S E E  Q E E S S S S E E  Q E E S S S S E E
G|--------------------|--------------------|--------------------|
D|------7---7-7-------|--------------------|--------------------|
A|--------------9-7-9-|-7----7---7-7-------|-7----7---7-7-------|
E|-5------------------|--------------9-7-9-|--------------9-7-9-|

  Q E E S S S S E E  Q E E S S S S E E  Q E E S S S S E E
G|-----------------------|--------------------|--------------------|
D|-9----9---9-9----------|------7---7-7-------|--------------------|
A|--------------11-9-11\-|--------------9-7-9-|-7----7---7-7-------|
E|-----------------------|-5------------------|--------------9-7-9-|


            2nd - 5th Verses (4th Guitar Solo):
            Segno $
            Segno Segno $$
  Q E E S S S S E E   Q E E S S S S E E  Q E E S S S S E E
G|--------------------||---------------------|--------------------|
D|--------------------||o--------------------|--------------------|
A|-7----7---7-7-------||o-7----7---7-7-------|-7----7---7-7-------|
E|--------------9-7-9-||---------------9-7-9-|--------------9-7-9-|


  Q E E S S S S E E  Q E E S S S S E E  Q E E S S S S E E
G|--------------------|---------------------|--------------------|
D|--------------------|---------------------|------7---7-7-------|
A|-7----7---7-7-------|-7----7---7-7--------|--------------9-7-9-|
E|--------------9-7-9-|--------------9-7-9\-|-5------------------|


  Q E E S S S S E E  Q E E S S S S E E  Q E E S S S S E E
G|--------------------|--------------------|--------------------|
D|------7---7-7-------|--------------------|--------------------|
A|--------------9-7-9-|-7----7---7-7-------|-7----7---7-7-------|
E|-5------------------|--------------9-7-9-|--------------9-7-9-|


                              To Coda
                              To Double Coda
  Q E E S S S S E E  Q E E S S S S E E  Q E E S S S S E E
G|-----------------------|--------------------|----------------------|
D|-9----9---9-9----------|------7---7-7-------|----------------------|
A|--------------11-9-11\-|--------------9-7-9-|-7----7---7-7---------|
E|-----------------------|-5------------------|--------------9-7-9---|


  1.        2.         Coda &
          Dal Segno al Coda  Dal Segno Segno al Double Coda
  Q E E E E E E   Q Q E E E E   E Q Q Q E
G|-----------------||----------------||---------------||
D|----------------o||----------------||---------------||
A|-7------------6-o||-7-----------6--||-7----------6--||
E|------7---8-9----||----7--8-8-9----||---7--8--9-----||


         Outro:
 Double Coda &&
  E Q Q Q E  Q E E S S S S E E  Q E E S S S S E E
G|--------------||--------------------|--------------------|
D|--------------||--------------------|--------------------|
A|-7----------6-||-7----7---7-7-------|-7----7---7-7-------|
E|---7--8--9----||--------------9-7-9-|--------------9-7-9-|


  Q E E S S S S E E  Q E E S S S S E E  Q E E S S S S E E
G|--------------------|---------------------|--------------------|
D|--------------------|---------------------|------7---7-7-------|
A|-7----7---7-7-------|-7----7---7-7--------|--------------9-7-9-|
E|--------------9-7-9-|--------------9-7-9\-|-5------------------|


  Q E E S S S S E E  Q E E S S S S E E  Q E E S S S S E E
G|--------------------|--------------------|--------------------|
D|------7---7-7-------|--------------------|--------------------|
A|--------------9-7-9-|-7----7---7-7-------|-7----7---7-7-------|
E|-5------------------|--------------9-7-9-|--------------9-7-9-|


  Q E E S S S S E E  Q E E S S S S E E  Q E E S S S S E E
G|-----------------------|--------------------|--------------------*|
D|-9----9---9-9----------|------7---7-7-------|--------------------*|
A|--------------11-9-11\-|--------------9-7-9-|-7----7---7-7-------*|
E|-----------------------|-5------------------|--------------9-7-9-*|

Lyrics:
I wanna tell you about ooh poo pah doo
They call me the most
Ooh poo pah doo
They call me the most, yeah
I won't stop tryin' till I create disturbance in your mind

Now ooh poo pah doo
They call me the most
Oh, yeah now
They call me the most
I won't stop tryin' till I create disturbance in your mind


Create disturbance in your mind
Create disturbance in your mind
Create disturbance in your mind
Create disturbance in your mind
I won't stop tryin' till I create disturbance in your mind

Lord have mercy
Soul is happy children

Ooh pah doo
They call me the most
Oh, mama, mama, mama, mama
Don't you know they call me the most, hey
I won't stop tryin' till I create disturbance in your mind
Look in here baby, here's what I'm gonna do

Ring a few bells in your ear
Ring a few bells in your ear
Ring a few bells in your ear
Ring a few bells in your ear
I won't stop tryin' till I create disturbance in your mind

************************************
Duration 🏷Legend

W - whole; H - half; Q - quarter; E - 8th;
+ - note tied to previous; . - note dotted;
Duration letters will always appear directly above the note/fret number it represents the
duration for. Duration letters with no fret number below them represent rests.

| \ - slide down

************************************

Almost there ...

Sign in to get your own page with links to favourite songs and more. You are just one click away...

Login with Facebook Login with Google