Log in

One click and you are in

Login with Facebook Login with Google

Why sign up and log in

Guitar Tabs Explorer
Wilson Pickett tabs for Mustang sally

Guitar tabs with lyrics

MUSTANG SALLY

As recorded by Wilson Pickett
(From the 1967 Album THE VERY BEST OF WILSON PICKETT)

Words and Music by Bonny Rice

Transcribed by Slowhand
Gtr I (E A D G B E) - 'Chips Moman - Electric Guitar'
Gtr II (E A D G B E) - 'Junior Lowe - Electric Guitar'


 Intro
  Q=120
            A chord diagramB5B5  A chord diagramC5C5   A chord diagramG minorGm          A chord diagramB5B5  A chord diagramC5C5   A chord diagramG minorGm          A chord diagramB5B5
 4/4
  Gtr I
                 PM--------------------------------------
  W              A chord diagramE MajorE A chord diagramE MajorE  A chord diagramE MajorE A chord diagramE MajorE  A chord diagramE MajorE A chord diagramE MajorE A chord diagramE MajorE A chord diagramE MajorE    A chord diagramE MajorE A chord diagramE MajorE  A chord diagramE MajorE A chord diagramE MajorE  A chord diagramE MajorE A chord diagramE MajorE A chord diagramE MajorE A chord diagramE MajorE
|-------------|--------------------|--------------------|
|-------------|--------------------|--------------------|
|-------------|--------------------|--------------------|
|-------------|--5-5--7-5--5-5-7-5-|--5-5--7-5--5-5-7-5-|
|-------------|--------------------|--------------------|
|-------------|--------------------|--------------------|
|
| Gtr II
| H    Q  A chord diagramE MajorE A chord diagramE MajorE    Q    q    q   A chord diagramE MajorE A chord diagramE MajorE    Q    q    q   A chord diagramE MajorE A chord diagramE MajorE
|-------------|--------------------|--------------------|
|-------------|--------------------|--------------------|
|-------------|--------------------|--------------------|
|-------------|-------8----8-------|-------8----8-------|
|-----------9s|=10---10---10-----9s|=10---10---10-----9s|
|-----------7s|==8---------------7s|==8---------------7s|

  A chord diagramC5C5   A chord diagramG minorGm          A chord diagramB5B5  A chord diagramC5C5   A chord diagramG minorGm          A chord diagramB5B5
 ---------------------------------------|
   A chord diagramE MajorE A chord diagramE MajorE  A chord diagramE MajorE A chord diagramE MajorE  A chord diagramE MajorE A chord diagramE MajorE A chord diagramE MajorE A chord diagramE MajorE    A chord diagramE MajorE A chord diagramE MajorE  A chord diagramE MajorE A chord diagramE MajorE  A chord diagramE MajorE A chord diagramE MajorE A chord diagramE MajorE A chord diagramE MajorE
|--------------------|-----------------------||
|--------------------|-----------------------||
|--------------------|-----------------------||
|--5-5--7-5--5-5-7-5-|--5-5--7-5--5-5-7-5----||
|--------------------|-----------------------||
|--------------------|-----------------------||
|
|  Q    q    q   A chord diagramE MajorE A chord diagramE MajorE    Q    q    q   A chord diagramE MajorE A chord diagramE MajorE
|--------------------|-----------------------||
|--------------------|-----------------------||
|--------------------|-----------------------||
|-------8----8-------|-------8----8----------||
|-10---10---10-----9s|=10---10---10-----9s===||
|--8---------------7s|==8---------------7s===||


   1st & 2nd Verses
    A chord diagramC5C5   A chord diagramG minorGm          A chord diagramB5B5  A chord diagramC5C5   A chord diagramG minorGm          A chord diagramB5B5
     PM--------------------------------------
     A chord diagramE MajorE A chord diagramE MajorE  A chord diagramE MajorE A chord diagramE MajorE  A chord diagramE MajorE A chord diagramE MajorE A chord diagramE MajorE A chord diagramE MajorE    A chord diagramE MajorE A chord diagramE MajorE  A chord diagramE MajorE A chord diagramE MajorE  A chord diagramE MajorE A chord diagramE MajorE A chord diagramE MajorE A chord diagramE MajorE
||---------------------|--------------------|
||o--------------------|--------------------|
||---------------------|--------------------|
||---5-5--7-5--5-5-7-5-|--5-5--7-5--5-5-7-5-|
||o--------------------|--------------------|
||---------------------|--------------------|
|
|    Q    q    q   A chord diagramE MajorE A chord diagramE MajorE    Q    q    q   A chord diagramE MajorE A chord diagramE MajorE
||---------------------|--------------------|
||o--------------------|--------------------|
||---------------------|--------------------|
||--------8----8-------|-------8----8-------|
||o-10---10---10-----9s|=10---10---10-----9s|
||---8---------------7s|==8---------------7s|


  A chord diagramC5C5   A chord diagramG minorGm          A chord diagramB5B5  A chord diagramC5C5   A chord diagramG minorGm          A chord diagramB5B5
 ---------------------------------------|
   A chord diagramE MajorE A chord diagramE MajorE  A chord diagramE MajorE A chord diagramE MajorE  A chord diagramE MajorE A chord diagramE MajorE A chord diagramE MajorE A chord diagramE MajorE    A chord diagramE MajorE A chord diagramE MajorE  A chord diagramE MajorE A chord diagramE MajorE  A chord diagramE MajorE A chord diagramE MajorE A chord diagramE MajorE A chord diagramE MajorE
|--------------------|----------------------|
|--------------------|----------------------|
|--------------------|----------------------|
|--5-5--7-5--5-5-7-5-|--5-5--7-5--5-5-7-5---|
|--------------------|----------------------|
|--------------------|----------------------|
|
|  Q    q    q   A chord diagramE MajorE A chord diagramE MajorE    Q    q    q   A chord diagramE MajorE A chord diagramE MajorE
|--------------------|----------------------|
|--------------------|----------------------|
|--------------------|----------------------|
|-------8----8-------|-------8----8---------|
|-10---10---10-----9s|=10---10---10-----9s==|
|--8---------------7s|==8---------------7s==|


  A chord diagramC5C5   A chord diagramG minorGm          A chord diagramB5B5  A chord diagramC5C5   A chord diagramG minorGm          A chord diagramB5B5
   PM--------------------------------------
   A chord diagramE MajorE A chord diagramE MajorE  A chord diagramE MajorE A chord diagramE MajorE  A chord diagramE MajorE A chord diagramE MajorE A chord diagramE MajorE A chord diagramE MajorE    A chord diagramE MajorE A chord diagramE MajorE  A chord diagramE MajorE A chord diagramE MajorE  A chord diagramE MajorE A chord diagramE MajorE A chord diagramE MajorE A chord diagramE MajorE
|--------------------|--------------------|
|--------------------|--------------------|
|--------------------|--------------------|
|--5-5--7-5--5-5-7-5-|--5-5--7-5--5-5-7-5-|
|--------------------|--------------------|
|--------------------|--------------------|
|
|  Q    q    q   A chord diagramE MajorE A chord diagramE MajorE    Q    q    q   A chord diagramE MajorE A chord diagramE MajorE
|--------------------|--------------------|
|--------------------|--------------------|
|--------------------|--------------------|
|-------8----8-------|-------8----8-------|
|-10---10---10-----9s|=10---10---10-----9s|
|--8---------------7s|==8---------------7s|


  A chord diagramC5C5   A chord diagramG minorGm          A chord diagramB5B5  A chord diagramC5C5   A chord diagramG minorGm          A chord diagramE5E5
 ---------------------------------------|
   A chord diagramE MajorE A chord diagramE MajorE  A chord diagramE MajorE A chord diagramE MajorE  A chord diagramE MajorE A chord diagramE MajorE A chord diagramE MajorE A chord diagramE MajorE    A chord diagramE MajorE A chord diagramE MajorE  A chord diagramE MajorE A chord diagramE MajorE  A chord diagramE MajorE A chord diagramE MajorE A chord diagramE MajorE A chord diagramE MajorE
|--------------------|---------------------|
|--------------------|---------------------|
|--------------------|---------------------|
|--5-5--7-5--5-5-7-5-|--5-5--7-5--5-5-7-5--|
|--------------------|---------------------|
|--------------------|---------------------|
|
|  Q    q    q   A chord diagramE MajorE A chord diagramE MajorE    Q    q    q   A chord diagramE MajorE A chord diagramE MajorE
|--------------------|---------------------|
|--------------------|---------------------|
|--------------------|---------------------|
|-------8----8-------|-------8----8-----9s=|
|-10---10---10-----9s|=10---10---10-----7s=|
|--8---------------7s|==8------------------|


  A chord diagramF5F5   A chord diagramC minorCm          A chord diagramE5E5  A chord diagramF5F5   A chord diagramC minorCm          A chord diagramE5E5
   PM--------------------------------------
   A chord diagramE MajorE A chord diagramE MajorE  A chord diagramE MajorE A chord diagramE MajorE  A chord diagramE MajorE A chord diagramE MajorE A chord diagramE MajorE A chord diagramE MajorE    A chord diagramE MajorE A chord diagramE MajorE  A chord diagramE MajorE A chord diagramE MajorE  A chord diagramE MajorE A chord diagramE MajorE A chord diagramE MajorE A chord diagramE MajorE
|--------------------|--------------------|
|--------------------|--------------------|
|--5-5--7-5--5-5-7-5-|--5-5--7-5--5-5-7-5-|
|--------------------|--------------------|
|--------------------|--------------------|
|--------------------|--------------------|
|
|  Q    q    q   A chord diagramE MajorE A chord diagramE MajorE    Q    q    q   A chord diagramE MajorE A chord diagramE MajorE
|--------------------|--------------------|
|--------------------|--------------------|
|-------8----8-------|-------8----8-------|
|-10---10---10-----9s|=10---10---10-----9s|
|--8---------------7s|==8---------------7s|
|--------------------|--------------------|


  A chord diagramF5F5   A chord diagramC minorCm          A chord diagramE5E5  A chord diagramF5F5   A chord diagramC minorCm          A chord diagramB5B5
 ---------------------------------------|
   A chord diagramE MajorE A chord diagramE MajorE  A chord diagramE MajorE A chord diagramE MajorE  A chord diagramE MajorE A chord diagramE MajorE A chord diagramE MajorE A chord diagramE MajorE    A chord diagramE MajorE A chord diagramE MajorE  A chord diagramE MajorE A chord diagramE MajorE  A chord diagramE MajorE A chord diagramE MajorE A chord diagramE MajorE A chord diagramE MajorE
|--------------------|---------------------|
|--------------------|---------------------|
|--5-5--7-5--5-5-7-5-|--5-5--7-5--5-5-7-5--|
|--------------------|---------------------|
|--------------------|---------------------|
|--------------------|---------------------|
|
|  Q    q    q   A chord diagramE MajorE A chord diagramE MajorE    Q    q    q   A chord diagramE MajorE A chord diagramE MajorE
|--------------------|---------------------|
|--------------------|---------------------|
|-------8----8-------|-------8----8--------|
|-10---10---10-----9s|=10---10---10--------|
|--8---------------7s|==8---------------9s=|
|--------------------|------------------7s=|


  A chord diagramC5C5   A chord diagramG minorGm          A chord diagramB5B5  A chord diagramC5C5   A chord diagramG minorGm          A chord diagramB5B5
   PM--------------------------------------
   A chord diagramE MajorE A chord diagramE MajorE  A chord diagramE MajorE A chord diagramE MajorE  A chord diagramE MajorE A chord diagramE MajorE A chord diagramE MajorE A chord diagramE MajorE    A chord diagramE MajorE A chord diagramE MajorE  A chord diagramE MajorE A chord diagramE MajorE  A chord diagramE MajorE A chord diagramE MajorE A chord diagramE MajorE A chord diagramE MajorE
|--------------------|--------------------|
|--------------------|--------------------|
|--------------------|--------------------|
|--5-5--7-5--5-5-7-5-|--5-5--7-5--5-5-7-5-|
|--------------------|--------------------|
|--------------------|--------------------|
|
|  Q    q    q   A chord diagramE MajorE A chord diagramE MajorE    Q    q    q   A chord diagramE MajorE A chord diagramE MajorE
|--------------------|--------------------|
|--------------------|--------------------|
|--------------------|--------------------|
|-------8----8-------|-------8----8-------|
|-10---10---10-----9s|=10---10---10-----9s|
|--8---------------7s|==8---------------7s|


  A chord diagramC5C5   A chord diagramG minorGm          A chord diagramB5B5  A chord diagramC5C5   A chord diagramG minorGm          A chord diagramF#5F#5
 ---------------------------------------|
   A chord diagramE MajorE A chord diagramE MajorE  A chord diagramE MajorE A chord diagramE MajorE  A chord diagramE MajorE A chord diagramE MajorE A chord diagramE MajorE A chord diagramE MajorE    A chord diagramE MajorE A chord diagramE MajorE  A chord diagramE MajorE A chord diagramE MajorE  A chord diagramE MajorE A chord diagramE MajorE A chord diagramE MajorE  A chord diagramE MajorE
|--------------------|----------------------|
|--------------------|----------------------|
|--------------------|----------------------|
|--5-5--7-5--5-5-7-5-|--5-5--7-5--5-5-7--5--|
|--------------------|----------------------|
|--------------------|----------------------|
|
|  Q    q    q   A chord diagramE MajorE A chord diagramE MajorE    Q    q    q   A chord diagramE MajorE  A chord diagramE MajorE
|--------------------|----------------------|
|--------------------|----------------------|
|--------------------|----------------------|
|-------8----8-------|-------8----8-----11s=|
|-10---10---10-----9s|=10---10---10------9s=|
|--8---------------7s|==8-------------------|


  A chord diagramG5G5   A chord diagramDmDm          A chord diagramF#5F#5  A chord diagramG5G5   A chord diagramDmDm        C#m/F# Cm/F                     A chord diagramB5B5
   PM----------------------------------|
   A chord diagramE MajorE A chord diagramE MajorE  A chord diagramE MajorE A chord diagramE MajorE  A chord diagramE MajorE A chord diagramE MajorE A chord diagramE MajorE  A chord diagramE MajorE    A chord diagramE MajorE A chord diagramE MajorE  A chord diagramE MajorE A chord diagramE MajorE  A chord diagramE MajorE A chord diagramE MajorE  A chord diagramE MajorE A chord diagramE MajorE    W             W
|---------------------|---------------------|--------------|--------------|
|---------------------|---------------------|--------------|--------------|
|--7-7--9-7--7-7-9--7-|--7-7--9-7--7-7--5---|--------------|--------------|
|---------------------|---------------------|--------------|--------------|
|---------------------|---------------------|--------------|--------------|
|---------------------|---------------------|--------------|--------------|
|
|  Q    q    q   A chord diagramE MajorE  A chord diagramE MajorE    Q    q    q    Q      Q   Q  H      H    Q  A chord diagramE MajorE A chord diagramE MajorE
|---------------------|---------------------|--------------|--------------|
|---------------------|---------------------|--------------|--------------|
|------10---10--------|------10---10----9---|--8\----------|--------------|
|-12---12---12-----11s|=12---12---12---11---|-10\----------|--------------|
|-10----------------9s|=10--------------9---|--8\----------|-----------9s=|
|---------------------|---------------------|--------------|-----------7s=|


  A chord diagramC5C5   A chord diagramG minorGm          A chord diagramB5B5  A chord diagramC5C5   A chord diagramG minorGm          A chord diagramB5B5
   PM--------------------------------------
   A chord diagramE MajorE A chord diagramE MajorE  A chord diagramE MajorE A chord diagramE MajorE  A chord diagramE MajorE A chord diagramE MajorE A chord diagramE MajorE A chord diagramE MajorE    A chord diagramE MajorE A chord diagramE MajorE  A chord diagramE MajorE A chord diagramE MajorE  A chord diagramE MajorE A chord diagramE MajorE A chord diagramE MajorE A chord diagramE MajorE
|--------------------|--------------------|
|--------------------|--------------------|
|--------------------|--------------------|
|--5-5--7-5--5-5-7-5-|--5-5--7-5--5-5-7-5-|
|--------------------|--------------------|
|--------------------|--------------------|
|
|  Q    q    q   A chord diagramE MajorE A chord diagramE MajorE    Q    q    q   A chord diagramE MajorE A chord diagramE MajorE
|--------------------|--------------------|
|--------------------|--------------------|
|--------------------|--------------------|
|-------8----8-------|-------8----8-------|
|-10---10---10-----9s|=10---10---10-----9s|
|--8---------------7s|==8---------------7s|


  A chord diagramC5C5   A chord diagramG minorGm          A chord diagramB5B5  A chord diagramC5C5   A chord diagramG minorGm          A chord diagramB5B5
 ---------------------------------------|
   A chord diagramE MajorE A chord diagramE MajorE  A chord diagramE MajorE A chord diagramE MajorE  A chord diagramE MajorE A chord diagramE MajorE A chord diagramE MajorE A chord diagramE MajorE    A chord diagramE MajorE A chord diagramE MajorE  A chord diagramE MajorE A chord diagramE MajorE  A chord diagramE MajorE A chord diagramE MajorE A chord diagramE MajorE A chord diagramE MajorE
|--------------------|---------------------||
|--------------------|---------------------||
|--------------------|---------------------||
|--5-5--7-5--5-5-7-5-|--5-5--7-5--5-5-7-5--||
|--------------------|---------------------||
|--------------------|---------------------||
|
|  Q    q    q   A chord diagramE MajorE A chord diagramE MajorE    Q    q    q   A chord diagramE MajorE A chord diagramE MajorE
|--------------------|---------------------||
|--------------------|---------------------||
|--------------------|---------------------||
|-------8----8-------|-------8----8--------||
|-10---10---10-----9s|=10---10---10-----9s=||
|--8---------------7s|==8---------------7s=||


 Chorus
  A chord diagramC majorC                A chord diagramB5B5  A chord diagramC majorC                A chord diagramB5B5
   PM--------------------------------------
   A chord diagramE MajorE A chord diagramE MajorE  A chord diagramE MajorE A chord diagramE MajorE  A chord diagramE MajorE A chord diagramE MajorE A chord diagramE MajorE A chord diagramE MajorE    A chord diagramE MajorE A chord diagramE MajorE  A chord diagramE MajorE A chord diagramE MajorE  A chord diagramE MajorE A chord diagramE MajorE A chord diagramE MajorE A chord diagramE MajorE
|--------------------|--------------------|
|--------------------|--------------------|
|--------------------|--------------------|
|--5-5--7-5--5-5-7-5-|--5-5--7-5--5-5-7-5-|
|--------------------|--------------------|
|--------------------|--------------------|
|
|  Q    q    q   A chord diagramE MajorE A chord diagramE MajorE    Q    q    q   A chord diagramE MajorE A chord diagramE MajorE
|--------------------|--------------------|
|--------------------|--------------------|
|-------9----9-------|-------9----9-------|
|-------8----8-------|-------8----8-------|
|-10---10---10-----9s|=10---10---10-----9s|
|--8---------------7s|==8---------------7s|


  A chord diagramC majorC                A chord diagramB5B5  A chord diagramC majorC                A chord diagramB5B5
 ---------------------------------------|
   A chord diagramE MajorE A chord diagramE MajorE  A chord diagramE MajorE A chord diagramE MajorE  A chord diagramE MajorE A chord diagramE MajorE A chord diagramE MajorE A chord diagramE MajorE    A chord diagramE MajorE A chord diagramE MajorE  A chord diagramE MajorE A chord diagramE MajorE  A chord diagramE MajorE A chord diagramE MajorE A chord diagramE MajorE A chord diagramE MajorE
|--------------------|---------------------|
|--------------------|---------------------|
|--------------------|---------------------|
|--5-5--7-5--5-5-7-5-|--5-5--7-5--5-5-7-5--|
|--------------------|---------------------|
|--------------------|---------------------|
|
|  Q    q    q   A chord diagramE MajorE A chord diagramE MajorE    Q    q    q   A chord diagramE MajorE A chord diagramE MajorE
|--------------------|---------------------|
|--------------------|---------------------|
|-------9----9-------|-------9----9--------|
|-------8----8-------|-------8----8--------|
|-10---10---10-----9s|=10---10---10-----9s=|
|--8---------------7s|==8---------------7s=|


  A chord diagramC majorC                A chord diagramB5B5  A chord diagramC majorC                A chord diagramB5B5
   PM--------------------------------------
   A chord diagramE MajorE A chord diagramE MajorE  A chord diagramE MajorE A chord diagramE MajorE  A chord diagramE MajorE A chord diagramE MajorE A chord diagramE MajorE A chord diagramE MajorE    A chord diagramE MajorE A chord diagramE MajorE  A chord diagramE MajorE A chord diagramE MajorE  A chord diagramE MajorE A chord diagramE MajorE A chord diagramE MajorE A chord diagramE MajorE
|--------------------|--------------------|
|--------------------|--------------------|
|--------------------|--------------------|
|--5-5--7-5--5-5-7-5-|--5-5--7-5--5-5-7-5-|
|--------------------|--------------------|
|--------------------|--------------------|
|
|  Q    q    q   A chord diagramE MajorE A chord diagramE MajorE    Q    q    q   A chord diagramE MajorE A chord diagramE MajorE
|--------------------|--------------------|
|--------------------|--------------------|
|-------9----9-------|-------9----9-------|
|-------8----8-------|-------8----8-------|
|-10---10---10-----9s|=10---10---10-----9s|
|--8---------------7s|==8---------------7s|


  A chord diagramC majorC                A chord diagramB5B5  A chord diagramC majorC                A chord diagramE5E5
 ---------------------------------------|
   A chord diagramE MajorE A chord diagramE MajorE  A chord diagramE MajorE A chord diagramE MajorE  A chord diagramE MajorE A chord diagramE MajorE A chord diagramE MajorE A chord diagramE MajorE    A chord diagramE MajorE A chord diagramE MajorE  A chord diagramE MajorE A chord diagramE MajorE  A chord diagramE MajorE A chord diagramE MajorE A chord diagramE MajorE A chord diagramE MajorE
|--------------------|---------------------|
|--------------------|---------------------|
|--------------------|---------------------|
|--5-5--7-5--5-5-7-5-|--5-5--7-5--5-5-7-5--|
|--------------------|---------------------|
|--------------------|---------------------|
|
|  Q    q    q   A chord diagramE MajorE A chord diagramE MajorE    Q    q    q   A chord diagramE MajorE A chord diagramE MajorE
|--------------------|---------------------|
|--------------------|---------------------|
|-------9----9-------|-------9----9--------|
|-------8----8-------|-------8----8-----9s=|
|-10---10---10-----9s|=10---10---10-----7s=|
|--8---------------7s|==8------------------|


  A chord diagramF7F7               A chord diagramE5E5  A chord diagramF7F7               A chord diagramE5E5
   PM--------------------------------------
   A chord diagramE MajorE A chord diagramE MajorE  A chord diagramE MajorE A chord diagramE MajorE  A chord diagramE MajorE A chord diagramE MajorE A chord diagramE MajorE A chord diagramE MajorE    A chord diagramE MajorE A chord diagramE MajorE  A chord diagramE MajorE A chord diagramE MajorE  A chord diagramE MajorE A chord diagramE MajorE A chord diagramE MajorE A chord diagramE MajorE
|--------------------|--------------------|
|--------------------|--------------------|
|--5-5--7-5--5-5-7-5-|--5-5--7-5--5-5-7-5-|
|--------------------|--------------------|
|--------------------|--------------------|
|--------------------|--------------------|
|
|  Q    q    q   A chord diagramE MajorE A chord diagramE MajorE    Q    q    q   A chord diagramE MajorE A chord diagramE MajorE
|--------------------|--------------------|
|------10---10-------|------10---10-------|
|-------8----8-------|-------8----8-------|
|-10---10---10-----9s|=10---10---10-----9s|
|--8---------------7s|==8---------------7s|
|--------------------|--------------------|


  A chord diagramF7F7               A chord diagramE5E5  A chord diagramF7F7               A chord diagramB5B5
 ---------------------------------------|
   A chord diagramE MajorE A chord diagramE MajorE  A chord diagramE MajorE A chord diagramE MajorE  A chord diagramE MajorE A chord diagramE MajorE A chord diagramE MajorE A chord diagramE MajorE    A chord diagramE MajorE A chord diagramE MajorE  A chord diagramE MajorE A chord diagramE MajorE  A chord diagramE MajorE A chord diagramE MajorE A chord diagramE MajorE A chord diagramE MajorE
|--------------------|---------------------|
|--------------------|---------------------|
|--5-5--7-5--5-5-7-5-|--5-5--7-5--5-5-7-5--|
|--------------------|---------------------|
|--------------------|---------------------|
|--------------------|---------------------|
|
|  Q    q    q   A chord diagramE MajorE A chord diagramE MajorE    Q    q    q   A chord diagramE MajorE A chord diagramE MajorE
|--------------------|---------------------|
|------10---10-------|------10---10--------|
|-------8----8-------|-------8----8--------|
|-10---10---10-----9s|=10---10---10--------|
|--8---------------7s|==8---------------9s=|
|--------------------|------------------7s=|


  A chord diagramC majorC                A chord diagramB5B5  A chord diagramC majorC                A chord diagramB5B5
   PM--------------------------------------
   A chord diagramE MajorE A chord diagramE MajorE  A chord diagramE MajorE A chord diagramE MajorE  A chord diagramE MajorE A chord diagramE MajorE A chord diagramE MajorE A chord diagramE MajorE    A chord diagramE MajorE A chord diagramE MajorE  A chord diagramE MajorE A chord diagramE MajorE  A chord diagramE MajorE A chord diagramE MajorE A chord diagramE MajorE A chord diagramE MajorE
|--------------------|--------------------|
|--------------------|--------------------|
|--------------------|--------------------|
|--5-5--7-5--5-5-7-5-|--5-5--7-5--5-5-7-5-|
|--------------------|--------------------|
|--------------------|--------------------|
|
|  Q    q    q   A chord diagramE MajorE A chord diagramE MajorE    Q    q    q   A chord diagramE MajorE A chord diagramE MajorE
|--------------------|--------------------|
|--------------------|--------------------|
|-------9----9-------|-------9----9-------|
|-------8----8-------|-------8----8-------|
|-10---10---10-----9s|=10---10---10-----9s|
|--8---------------7s|==8---------------7s|


  A chord diagramC majorC                A chord diagramB5B5  A chord diagramC majorC                A chord diagramF#5F#5
 ---------------------------------------|
   A chord diagramE MajorE A chord diagramE MajorE  A chord diagramE MajorE A chord diagramE MajorE  A chord diagramE MajorE A chord diagramE MajorE A chord diagramE MajorE A chord diagramE MajorE    A chord diagramE MajorE A chord diagramE MajorE  A chord diagramE MajorE A chord diagramE MajorE  A chord diagramE MajorE A chord diagramE MajorE A chord diagramE MajorE  A chord diagramE MajorE
|--------------------|----------------------|
|--------------------|----------------------|
|--------------------|----------------------|
|--5-5--7-5--5-5-7-5-|--5-5--7-5--5-5-7--5--|
|--------------------|----------------------|
|--------------------|----------------------|
|
|  Q    q    q   A chord diagramE MajorE A chord diagramE MajorE    Q    q    q   A chord diagramE MajorE  A chord diagramE MajorE
|--------------------|----------------------|
|--------------------|----------------------|
|-------9----9-------|-------9----9---------|
|-------8----8-------|-------8----8-----11s=|
|-10---10---10-----9s|=10---10---10------9s=|
|--8---------------7s|==8-------------------|


  A chord diagramG7G7               A chord diagramF#5F#5  A chord diagramG7G7             A chord diagramF#7F#7    A chord diagramF7F7                       A chord diagramB5B5
   PM----------------------------------|
   A chord diagramE MajorE A chord diagramE MajorE  A chord diagramE MajorE A chord diagramE MajorE  A chord diagramE MajorE A chord diagramE MajorE A chord diagramE MajorE  A chord diagramE MajorE    A chord diagramE MajorE A chord diagramE MajorE  A chord diagramE MajorE A chord diagramE MajorE  A chord diagramE MajorE A chord diagramE MajorE  A chord diagramE MajorE A chord diagramE MajorE    W             W
|---------------------|---------------------|--------------|--------------|
|---------------------|---------------------|--------------|--------------|
|--7-7--9-7--7-7-9--7-|--7-7--9-7--7-7--5---|--------------|--------------|
|---------------------|---------------------|--------------|--------------|
|---------------------|---------------------|--------------|--------------|
|---------------------|---------------------|--------------|--------------|
|
|  Q    q    q   A chord diagramE MajorE  A chord diagramE MajorE    Q    q    q    q      Q   Q  H      H    Q  A chord diagramE MajorE A chord diagramE MajorE
|---------------------|---------------------|--------------|--------------|
|------12---12--------|------12---12---11---|-10\----------|--------------|
|------10---10--------|------10---10----9---|--8\----------|--------------|
|-12---12---12-----11s|=12---12---12---11---|-10\----------|--------------|
|-10----------------9s|=10--------------9---|--8\----------|-----------9s=|
|---------------------|---------------------|--------------|-----------7s=|


  A chord diagramC5C5   A chord diagramG minorGm          A chord diagramB5B5  A chord diagramC5C5   A chord diagramG minorGm          A chord diagramB5B5
   PM--------------------------------------
   A chord diagramE MajorE A chord diagramE MajorE  A chord diagramE MajorE A chord diagramE MajorE  A chord diagramE MajorE A chord diagramE MajorE A chord diagramE MajorE A chord diagramE MajorE    A chord diagramE MajorE A chord diagramE MajorE  A chord diagramE MajorE A chord diagramE MajorE  A chord diagramE MajorE A chord diagramE MajorE A chord diagramE MajorE A chord diagramE MajorE
|--------------------|--------------------|
|--------------------|--------------------|
|--------------------|--------------------|
|--5-5--7-5--5-5-7-5-|--5-5--7-5--5-5-7-5-|
|--------------------|--------------------|
|--------------------|--------------------|
|
|  Q    q    q   A chord diagramE MajorE A chord diagramE MajorE    Q    q    q   A chord diagramE MajorE A chord diagramE MajorE
|--------------------|--------------------|
|--------------------|--------------------|
|--------------------|--------------------|
|-------8----8-------|-------8----8-------|
|-10---10---10-----9s|=10---10---10-----9s|
|--8---------------7s|==8---------------7s|


  A chord diagramC5C5   A chord diagramG minorGm          A chord diagramB5B5  A chord diagramC5C5   A chord diagramG minorGm          A chord diagramB5B5
 ---------------------------------------|
   A chord diagramE MajorE A chord diagramE MajorE  A chord diagramE MajorE A chord diagramE MajorE  A chord diagramE MajorE A chord diagramE MajorE A chord diagramE MajorE A chord diagramE MajorE    A chord diagramE MajorE A chord diagramE MajorE  A chord diagramE MajorE A chord diagramE MajorE  A chord diagramE MajorE A chord diagramE MajorE A chord diagramE MajorE A chord diagramE MajorE
|--------------------|----------------------||
|--------------------|---------------------o||
|--------------------|----------------------||
|--5-5--7-5--5-5-7-5-|--5-5--7-5--5-5-7-5---||
|--------------------|---------------------o||
|--------------------|----------------------||
|
|  Q    q    q   A chord diagramE MajorE A chord diagramE MajorE    Q    q    q   A chord diagramE MajorE A chord diagramE MajorE
|--------------------|----------------------||
|--------------------|---------------------o||
|--------------------|----------------------||
|-------8----8-------|-------8----8---------||
|-10---10---10-----9s|=10---10---10-----9s=o||
|--8---------------7s|==8---------------7s==||


   Outro
    A chord diagramC5C5   A chord diagramG minorGm          A chord diagramB5B5  A chord diagramC5C5   A chord diagramG minorGm          A chord diagramB5B5
     PM--------------------------------------
     A chord diagramE MajorE A chord diagramE MajorE  A chord diagramE MajorE A chord diagramE MajorE  A chord diagramE MajorE A chord diagramE MajorE A chord diagramE MajorE A chord diagramE MajorE    A chord diagramE MajorE A chord diagramE MajorE  A chord diagramE MajorE A chord diagramE MajorE  A chord diagramE MajorE A chord diagramE MajorE A chord diagramE MajorE A chord diagramE MajorE
||---------------------|--------------------|
||o--------------------|--------------------|
||---------------------|--------------------|
||---5-5--7-5--5-5-7-5-|--5-5--7-5--5-5-7-5-|
||o--------------------|--------------------|
||---------------------|--------------------|
|
|    Q    q    q   A chord diagramE MajorE A chord diagramE MajorE    Q    q    q   A chord diagramE MajorE A chord diagramE MajorE
||---------------------|--------------------|
||o--------------------|--------------------|
||---------------------|--------------------|
||--------8----8-------|-------8----8-------|
||o-10---10---10-----9s|=10---10---10-----9s|
||---8---------------7s|==8---------------7s|


  A chord diagramC5C5   A chord diagramG minorGm          A chord diagramB5B5  A chord diagramC5C5   A chord diagramG minorGm          A chord diagramB5B5
 ---------------------------------------|
   A chord diagramE MajorE A chord diagramE MajorE  A chord diagramE MajorE A chord diagramE MajorE  A chord diagramE MajorE A chord diagramE MajorE A chord diagramE MajorE A chord diagramE MajorE    A chord diagramE MajorE A chord diagramE MajorE  A chord diagramE MajorE A chord diagramE MajorE  A chord diagramE MajorE A chord diagramE MajorE A chord diagramE MajorE A chord diagramE MajorE
|--------------------|-----------------------||
|--------------------|----------------------o||
|--------------------|-----------------------||
|--5-5--7-5--5-5-7-5-|--5-5--7-5--5-5-7-5----||
|--------------------|----------------------o||
|--------------------|-----------------------||
|
|  Q    q    q   A chord diagramE MajorE A chord diagramE MajorE    Q    q    q   A chord diagramE MajorE A chord diagramE MajorE
|--------------------|-----------------------||
|--------------------|----------------------o||
|--------------------|-----------------------||
|-------8----8-------|-------8----8----------||
|-10---10---10-----9s|=10---10---10-----9/--o||
|--8---------------7s|==8---------------7/---||


Duration 🏷Legend
---------------
W - whole; H - half; Q - quarter; A chord diagramE MajorE - 8th; S - 16th; T - 32nd; X - 64th; a - acciaccatura
+ - note tied to previous; . - note dotted; .. - note double dotted
Uncapitalized letters represent notes that are staccato (1/2 duration)
Irregular groupings are notated above the duration line
Duration letters will always appear directly above the note/fret number it represents the
duration for.  Duration letters with no fret number below them represent rests.  Multi-
bar rests are notated in the form Wxn, where n is the number of bars to rest for.  Low
melody durations appear below the staff

Tablature 🏷Legend
----------------
 h   - hammer-on
 p   - pull-off
 b   - bend
 pb  - pre-bend
 r   - bend release (if no number after the r, then release immediately)
 /\  - slide into or out of (from/to "nowhere")
 s   - legato slide
 S   - shift slide
  - natural harmonic
[n]  - artificial harmonic
n(n) - tapped harmonic
 ~   - vibrato
 tr  - trill
 T   - tap
 TP  - trem. picking
 PM  - palm muting
\n/  - tremolo bar dip; n = amount to dip
 \n  - tremolo bar down
 n/  - tremolo bar up
/n\  - tremolo bar inverted dip
 =   - hold bend; also acts as connecting device for hammers/pulls
 <>  - volume swell (louder/softer)
 x   - on rhythm slash represents muted slash
 o   - on rhythm slash represents single note slash

Misc 🏷Legend
-----------
 |  - bar
||  - double bar
||o - repeat start
o|| - repeat end
*|  - double bar (ending)
 :  - bar (freetime)
 $  - Segno
 &  - Coda
Tempo markers -  = BPM(8/16=s8/s16), where s8 = swing 8ths, s16 = swing 16ths

Other versions of Mustang Sally

Mustang sallyChords
Mustang sally ukuleleChords

Almost there ...

Sign in to get your own page with links to favourite songs and more. You are just one click away...

Login with Facebook Login with Google