Log in

One click and you are in

Login with Facebook Login with Google

Why sign up and log in

Guitar Tabs Explorer
Wilson Pickett bass tabs for Funky broadway

Bass tabs with lyrics

Tuning: Standard (E A D G)


Intro:

G|---------------------------------------------------------------------------|
D|---------------------------------------------------------------------------|
A|--7--7--5--7--5-----------------------7--7--5--7---------------------------|
E|----------------7--5--0-0--3--4--5----------------7--5--0-0--3--4--5-------|
Verse 1:

G|---------------------------------------------------------------------------|
D|---------------------------------------------------------------------------|
A|--7--7--5--7--5-----------------------7--7--5--7---------------------------|
E|----------------7--5--0-0--3--4--5----------------7--5--0-0--3--4--5-------|
  Every town I go in         There's a street, uh! h'uh!

G|---------------------------------------------------------------------------|
D|---------------------------------------------------------------------------|
A|--7--7--5--7--5-----------------------7--7--5--7---------------------------|
E|----------------7--5--0-0--3--4--5----------------7--5--0-0--3--4--5-------|
  Name of the street, club      H'uh! Funky, Funky Broadway


Verse 2:

G|---------------------------------------------------------------------------|
D|---------------------------------------------------------------------------|
A|--7--7--5--7--5-----------------------7--7--5--7---------------------------|
E|----------------7--5--0-0--3--4--5----------------7--5--0-0--3--4--5-------|
  Down on Broadway, yeah       There's a nightclub, now, now

G|---------------------------------------------------------------------------|
D|---------------------------------------------------------------------------|
A|--7--7--5--7--5-----------------------7--7--5--7---------------------------|
E|----------------7--5--0-0--3--4--5----------------7--5--0-0--3--4--5-------|
  Name of the nightclub, now baby   Funky Funky Broadway

Verse 3:

G|---------------------------------------------------------------------------|
D|---------------------------------------------------------------------------|
A|--7--7--5--7--5-----------------------7--7--5--7---------------------------|
E|----------------7--5--0-0--3--4--5----------------7--5--0-0--3--4--5-------|
  Down on Broadway, yeah       There's a crowd now h'uh!

G|---------------------------------------------------------------------------|
D|---------------------------------------------------------------------------|
A|--7--7--5--7--5-----------------------7--7--5--7---------------------------|
E|----------------7--5--0-0--3--4--5----------------7--5--0-0--3--4--5-------|
  Name of the crowd, baby       Broadway Crowd


Verse 4:

G|---------------------------------------------------------------------------|
D|---------------------------------------------------------------------------|
A|--7--7--5--7--5-----------------------7--7--5--7---------------------------|
E|----------------7--5--0-0--3--4--5----------------7--5--0-0--3--4--5-------|
  Down on Broadway, yeah        There's a dance step, ha!

G|---------------------------------------------------------------------------|
D|---------------------------------------------------------------------------|
A|--7--7--5--7--5-----------------------7--7--5--7---------------------------|
E|----------------7--5--0-0--3--4--5----------------7--5--0-0--3--4--5-------|
  Name of the dance          Funky Funky Broadway

G|---------------------------------------------------------------------------|
D|---------------------------------------------------------------------------|
A|--7--7--5--7--5-----------------------7--7--5--7---------------------------|
E|----------------7--5--0-0--3--4--5----------------7--5--0-0--3--4--5-------|


Chorus:

G|---------------------------------------------------------------------------|
D|---------------------------------------------------------------------------|
A|--7------------------------------------------------------------------------|
E|--------------------------------0------------------------------------------|
   Wiggle your legs now, baby  Shake your head, now    Ooo, h'uh

G|---------------------------------------------------------------------------|
D|---------------------------------------------------------------------------|
A|--7------------------------------------------------------------------------|
E|--------------------------------------0------------------------------------|
   Do the Shing-A-Ling now, baby    Shake, shake, shake, now

G|---------------------------------------------------------------------------|
D|---------------------------------------------------------------------------|
A|--7------------------------------------------------------------------------|
E|--------------------------------------0------------------------------------|
   You don't know, how baby, hot    You don't know now, woman

G|---------------------------------------------------------------------------|
D|---------------------------------------------------------------------------|
A|--7------------------------------------------------------------------------|
E|--------------------------------------0------------------------------------|
   Oow!                 Do the Funky Broadway

G|---------------------------------------------------------------------------|
D|---------------------------------------------------------------------------|
A|---------------------------------------------------------------------------|
E|---------------------------------------------------------------------------|
  HEY!   (Lord have mercy!)        Oh, you got me feelin' alright

 Play under Sax Solo 4 times
G|---------------------------------------------------------------------------|
D|---------------------------------------------------------------------------|
A|--7--7--5--7--5-----------------------7--7--5--7---------------------------|
E|----------------7--5--0-0--3--4--5----------------7--5--0-0--3--4--5-------|


Verse 5:

G|---------------------------------------------------------------------------|
D|---------------------------------------------------------------------------|
A|--7--7--5--7--5-----------------------7--7--5--7---------------------------|
E|----------------7--5--0-0--3--4--5----------------7--5--0-0--3--4--5-------|
   Dirty, filthy, Broadway       Don't I like Broadway, h'uh!

G|---------------------------------------------------------------------------|
D|---------------------------------------------------------------------------|
A|--7--7--5--7--5-----------------------7--7--5--7---------------------------|
E|----------------7--5--0-0--3--4--5----------------7--5--0-0--3--4--5-------|
   That Broadway            Look-a-here!

G|---------------------------------------------------------------------------|
D|---------------------------------------------------------------------------|
A|--7--7--5--7--5-----------------------7--7--5--7---------------------------|
E|----------------7--5--0-0--3--4--5----------------7--5--0-0--3--4--5-------|
   Down on Broadway          There's a woman

G|---------------------------------------------------------------------------|
D|---------------------------------------------------------------------------|
A|--7--7--5--7--5-----------------------7--7--5--7---------------------------|
E|----------------7--5--0-0--3--4--5----------------7--5--0-0--3--4--5-------|
   Name of the woman, h'uh!      Broadway Woman       HEY!


Outro: Slow fade

G|---------------------------------------------------------------------------|
D|---------------------------------------------------------------------------|
A|--7--7--5--7--5-----------------------7--7--5--7---------------------------|
E|----------------7--5--0-0--3--4--5----------------7--5--0-0--3--4--5-------|
   Down on Broadway-e-he, yeah!    There's a man, h'uh!

                     Fade out
G|---------------------------------------------------------------------------|
D|---------------------------------------------------------------------------|
A|--7--7--5--7--5-----------------------7--7--5--7---------------------------|
E|----------------7--5--0-0--3--4--5----------------7--5--0-0--3--4--5-------|
   Name of the man, now, now, now, now

Almost there ...

Sign in to get your own page with links to favourite songs and more. You are just one click away...

Login with Facebook Login with Google