Log in

One click and you are in

Login with Facebook Login with Google

Why sign up and log in

Guitar Tabs Explorer
Wilson Pickett bass tabs for Dont knock my love pt 1

Don't Knock My Love Pt 1 bass tab - Wilson Pickett

Wilson Pickett bass tabs for Dont knock my love pt 1

Bass tabs with lyrics

Tuning: Standard (E A D G)

Key: F

Difficulty: Intermediate

DON'T KNOCK MY LOVE PT. 1 (Bassline)
As recorded by Wilson Pickett
(From the 1971 Album DON'T KNOCK MY LOVE)

Words and Music by Wilson Pickett & Brad Shapiro
Transcribed by Slowhand

Gtr I (E A D G) - 'David Hood - Bass'

 Intro:
 Q=110
 4/4
  Gtr I
  S E S Q S E S Q  S E S Q S E S Q   S E S Q S E S Q
G|-------------------|-------------------||--------------------|
D|-------------------|-------------------||o-------------------|
A|-3-5-3-5--3-5-3-5--|-3-5-3-5--3-5-3-5--||o-3-5-3-5--3-5-3-5--|
E|-------------------|-------------------||--------------------|


              1st & 2nd Verses:
  S E S S S S S E E +Q   S E S Q S E S Q  S E S S S S S E E +Q
G|------------------------||-------------------|-------------------------|
D|------------------------||-------------------|-------------------------|
A|-3-5-3-5-3-5-3-5--------||-3-5-3-5--3-5-3-5--|-3-5-3-5-3-5-3-5---------|
E|-----------------1-(1)--||-------------------|-----------------1-(1)---|


  S E S Q S E S Q  S E S S S S S E E +Q
G|-------------------|------------------------|
D|-------------------|------------------------|
A|-3-5-3-5--3-5-3-5--|-3-5-3-5-3-5-3-5--------|
E|-------------------|-----------------1-(1)--|

  S E S Q S E S Q  S E S S S S S E E +Q
G|-------------------|--------------------------|
D|-------------------|--------------------------|
A|-3-5-3-5--3-5-3-5--|-3-5-3-5-3-5-3-5----------|
E|-------------------|-----------------1-(1)----|


  S E S Q S E S Q  S E S S S S S E E +Q   S E S Q S E S Q
G|-------------------|------------------------|-------------------|
D|-------------------|------------------------|-------------------|
A|-3-5-3-5--3-5-3-5--|-3-5-3-5-3-5-3-5--------|-3-5-3-5--3-5-3-5--|
E|-------------------|-----------------1-(1)--|-------------------|


                 Bridge:
                 1.
  S E S S S S S S E S +S E S  Q E E E E E E  Q E E E E E E
G|---------------7-5-----------||----------------|----------------|
D|-------------------7-(7)-5---||-3------3-5-3---|----------3-----|
A|-3-5-3-5-3-5-3-------------3-||----3-5-------3-|-5----3-5---5-3-|
E|-----------------------------||----------------|----5-----------|


  Q E E E E E E  +E E E E +E E E E  Q E E E E E E  Q E E Q E E
G|----------------|---------------------|----------------|---------------|
D|----------------|---------------------|-3------3-5-3---|---------------|
A|-2------2---2---|-----0-2-------0-2-3-|----3-5-------3-|-5----3-5--3-5-|
E|----1-3---3---3-|-(3)-----3-(3)-------|----------------|----5----------|


                     Bridge:
                     2.
  Q E E Q E E  +E E E E +E E E E   Q E E E E E E  Q E E E E E E
G|---------------|----------------------||----------------|----------------|
D|---------------|---------------------o||-3------3-5-3---|----------3-----|
A|-2------2--2---|-----0-2-------0-2-3-o||----3-5-------3-|-5----3-5---5-3-|
E|----1-3------3-|-(3)-----3-(3)--------||----------------|----5-----------|


  Q E E Q E E  +E E E E +E E E E  Q E E E E E E  Q E E Q E E
G|---------------|---------------------|----------------|---------------|
D|---------------|---------------------|-3------3-5-3---|---------------|
A|-2------2--2---|-----0-2-------0-2-3-|----3-5-------3-|-5----3-5--3-5-|
E|----1-3------3-|-(3)-----3-(3)-------|----------------|----5----------|


                     Interlude:
  Q E E Q E E  +E E E E +E E E E  H..    S S  H..    S S
G|---------------|---------------------||---------------|-----------------|
D|---------------|---------------------||---------------|-----------------|
A|-2------2--2---|-----0-2-------0-2-3-||-----------2h3-|-----------2h3---|
E|----1-3------3-|-(3)-----3-(3)-------||-1-------------|-1---------------|


                  Outro:
  Q H  +E S S  Q H.     S E S Q S E S Q
G|-----------------|------------||--------------------|
D|----3----(3)-----|----3-------||o-------------------|
A|-------------2h3-|------------||o-3-5-3-5--3-5-3-5--|
E|-1---------------|-1----------||--------------------|


  S E S S S S S E E +Q   S E S Q S E S Q  S E S S S S S E E +Q   4x
G|------------------------|-------------------|--------------------------||
D|------------------------|-------------------|-------------------------o||
A|-3-5-3-5-3-5-3-5--------|-3-5-3-5--3-5-3-5--|-3-5-3-5-3-5-3-5---------o||
E|-----------------1-(1)--|-------------------|-----------------1-(1)----||

Lyrics:
If my love won't pull you up
And my kisses won't check your stuff
Don't be afraid to let me know
'Bout other places, baby, that I can go

If you don't like it, don't knock it
Somebody help, and don't rock it
If you don't need it, don't waste it
Somebody help, and don't erase it

Oh baby, oh baby
It's for real, don't turn you on
And my will is much too strong
Don't waste my time with your foolish ways
I've got other things to do with my days

Goin' up, movin' down
Goin' up, all the way around town
Up for once that turn you on
I'm the same one to leave you alone
Don't knock my love, don't knock my love
Don't knock my love, baby, don't knock my love
Good goin', fine, it's all right
Don't knock my love, don't knock my love

************************************

| W - whole; H - half; Q - quarter; E - 8th; S - 16th; T - 32nd;
| .. - note double dotted
| (n) hold note

************************************

Almost there ...

Sign in to get your own page with links to favourite songs and more. You are just one click away...

Login with Facebook Login with Google