Log in

One click and you are in

Login with Facebook Login with Google

Why sign up and log in

Guitar Tabs Explorer
Pibes Chorros chords for La danza chorra

Guitar chords

INTRO

e|------------------------------------------|
b|------------------------------------------|
g|------------------------------------------|   Riff 1
d|-----3-3-0-----3-3-0-----3-3-0-----3-3-0--|
a|---0---------0---------0---------0--------|
e|-1---------1---------1---------1----------|
e|-------------------------------------------------|
b|------------------11-10--------------------------|
g|-7--7--10-9-12-10-------7--7--10-9-12-------7----|    Riff 2
d|--------------------------------------7-8-7------|
a|-------------------------------------------------|
e|-------------------------------------------------|


e|---11-10----------11-10----------11-10----------11-10--------|
b|-8-------11-10--8-------11-10--8-------11-10--8-------11-10--|
g|-------------------------------------------------------------| Riff 3
d|-------------------------------------------------------------|
a|-------------------------------------------------------------|
e|-------------------------------------------------------------|


e|----------|-------------------------|
b|-10-10-10-|(10-10-10-11-10-8-10)x2--|
g|----------|-------------------------|      Riff 4
d|----------|-------------------------|
a|----------|-------------------------|
e|----------|-------------------------|


e|-------------------------------------10-12-10-13-15-13-15-17-17-17..|
b|-10-10-10-10-11-10-11-13-11-13-15-13-----------|
g|--------------------------------------------------|
d|--------------------------------------------------|   Riff 5
a|--------------------------------------------------|
e|--------------------------------------------------|

e|-12-10-8-8-8-8/10-10-10------12-----|
b|-10--8-6----------------8-10----- --|
g|------------------------------------| Riff 6*
d|------------------------------------|
a|------------------------------------|
e|------------------------------------| *a estos riff no los pude
                                        sacar bien, son mas o
                                        menos iguales.
e|-12-10-8-8-8-8/10-10-10-------------|
b|-10--8-6----------------8-10--------|
g|------------------------------------| Riff 7*
d|------------------------------------|
a|------------------------------------|
e|------------------------------------|


En ests Riff pongo solamente la cuerda que toco:
'estos son los trastes que se tocan, ustedes toquen la
cuerda las veces que sean necesarias'

b|-333333333-666666666-555555555-888888888-666666666-|

b|-101010101010101010-888888888-111111111111111111-10101010101010--|

b|-14141414141414-1515--15-15-15-|

FINAL

e|---------------------------------|------------|
b|---------------------------------|------------|
g|---------------------------------|------------|
d|-----3-3-0-----3-3-0--3-0-3-0-x2-|-----3-3-0--|
a|---0---------0-------------------|---0--------|
e|-1---------1---------------------|-1----------|


A chord diagramA augmentedA este tema se lo quiero dedicar a PICHU, MARIO, JAVI,
 ARIEL,JUAN,EL GATO,
 y a Todos los pibes de la Tecnica nro. 1 de GRAND BOURG.

Almost there ...

Sign in to get your own page with links to favourite songs and more. You are just one click away...

Login with Facebook Login with Google