Log in

One click and you are in

Login with Facebook Login with Google

Why sign up and log in

Guitar Tabs Explorer
Phum Viphurit bass tabs for Lover boy

Bass tabs

Tuning: Standard (E A D G)

Key: G#m

Difficulty: Intermediate

not 100% accurate but fits the song
Intro:

G|--------------------|--------------------|---------------------|-------------------|
D|---------------4----|--------------------|---------------1-----|-------------------|
A|--4---4--x-4--------|---------------1----|--2---2--x-2---------|-------------------|
E|--------------------|--2---2--x-2--------|---------------------|--4---4--x-4-2-----|

G|--------------------|--------------------|---------------------|-------4-----4-----|
D|--------------4-----|--------------------|---------------1-----|----4h6-6-4h6-6----|
A|--4---4--x-4--------|---------------1----|--2---2--x-2---------|-------------------|
E|--------------------|--2---2-x-2---------|---------------------|--4----------------|


Instrumental:

G|---x-P6-----------|------------------|----x-P8-----------|-------------------------|
D|--------------4/6-|---x-P4-----------|---------------6/8-|---x-P6---------6---4h6--|
A|-4------x-2-4-----|---------------1--|-/6------x-4-6-----|------------4h6---x------|
E|------------------|-2----=--x-x-2----|-------------------|-4------x-x--------------|

G|---x-P6-----------|------------------|----x-P8-----------|----------4-4---4--------|
D|--------------4/6-|---x-P4-----------|---------------6/8-|------4h6-----6---6p4----|
A|-4------x-2-4-----|---------------1--|-/6------x-4-6-----|-------------------------|
E|------------------|-2----=--x-x-2----|-------------------|-4-----------------------|


Verse:

G|--------------------|--------------------|---------------------|-------------------|
D|---------------4----|--------------------|---------------1-----|-------------------|
A|--4---4--x-4--------|---------------1----|--2---2--x-2---------|-------------------|
E|--------------------|--2---2--x-2--------|---------------------|--4---4--x-4-2-----|
                                                                                         x2
G|--------------------|--------------------|---------------------|-------4-----4-----|
D|--------------4-----|--------------------|---------------1-----|----4h6-6-4h6-6----|
A|--4---4--x-4--------|---------------1----|--2---2--x-2---------|-------------------|
E|--------------------|--2---2-x-2---------|---------------------|--4----------------|

Chorus:

G|--------------|--------4h6p4--=-----|------------------------------------------|
D|--------------|--2h4/6-------=6/4-2-|----------6---4---------------------------|
A|----------2h4-|----------------=----|-2---4/6---------4/2----------------------|  x3
E|-0----2h4-----|-----------------=---|------------------------------------------|

G|--------------|--------4h6p4--------|------------------------------------------|
D|--------------|--2h4/6--------6/4-2-|----------6-------------------------------|
A|----------2h4-|---------------------|-2---4/6----------------------------------|
E|-0----2h4-----|---------------------|------------------------------------------|


Instrumental:

G|---x-P6-----------|------------------|----x-P8-----------|-------------------------|
D|--------------4/6-|---x-P4-----------|---------------6/8-|---x-P6---------6---4h6--|
A|-4------x-2-4-----|---------------1--|-/6------x-4-6-----|------------4h6---x------|
E|------------------|-2----=--x-x-2----|-------------------|-4------x-x--------------|

G|---x-P6-----------|------------------|----x-P8-----------|----------4-4---4--------|
D|--------------4/6-|---x-P4-----------|---------------6/8-|------4h6-----6---6p4----|
A|-4------x-2-4-----|---------------1--|-/6------x-4-6-----|-------------------------|
E|------------------|-2----=--x-x-2----|-------------------|-4-----------------------|


Verse 2:

G|--------------------|--------------------|---------------------|-------------------|
D|---------------4----|--------------------|---------------1-----|-------------------|
A|--4---4--x-4--------|---------------1----|--2---2--x-2---------|-------------------|
E|--------------------|--2---2--x-2--------|---------------------|--4---4--x-4-2-----|
                                                                                         x2
G|--------------------|--------------------|---------------------|-------4-----4-----|
D|--------------4-----|--------------------|---------------1-----|----4h6-6-4h6-6----|
A|--4---4--x-4--------|---------------1----|--2---2--x-2---------|-------------------|
E|--------------------|--2---2-x-2---------|---------------------|--4----------------|


Bridge:

G|-----|-----|-----|-----|-----|-----|-----|------|----------------------------------|
D|-----|-----|-----|-----|-----|-----|-----|------|----------------------------------|
A|-----|-----|-----|-----|-----|-----|-----|------|--------------------9-------------|
E|--4--|=-7--|--4--|--9--|--4--|--7--|--4--|-=12--|---11---10----9-------------------|
                                                      im   your  lov-  er   boy

Chorus:

G|--------------|--------4h6p4--=-----|------------------------------------------|
D|--------------|--2h4/6-------=6/4-2-|----------6---4---------------------------|
A|----------2h4-|----------------=----|-2---4/6---------4/2----------------------|  x3
E|-0----2h4-----|-----------------=---|------------------------------------------|

G|--------------|--------4h6p4--------|------------------------------------------|
D|--------------|--2h4/6--------6/4-2-|----------6-------------------------------|
A|----------2h4-|---------------------|-2---4/6----------------------------------|
E|-0----2h4-----|---------------------|------------------------------------------|


Instrumental:

G|---x-P6-----------|------------------|----x-P8-----------|-------------------------|
D|--------------4/6-|---x-P4-----------|---------------6/8-|---x-P6---------6---4h6--|
A|-4------x-2-4-----|---------------1--|-/6------x-4-6-----|------------4h6---x------|
E|------------------|-2----=--x-x-2----|-------------------|-4------x-x--------------|

G|---x-P6-----------|------------------|----x-P8-----------|----------4-4---4--------|
D|--------------4/6-|---x-P4-----------|---------------6/8-|------4h6-----6---6p4----|
A|-4------x-2-4-----|---------------1--|-/6------x-4-6-----|-------------------------|
E|------------------|-2----=--x-x-2----|-------------------|-4-----------------------|


Outro:

G|--------------------|--------------------|---------------------|-------------------|
D|---------------4----|--------------------|---------------1-----|-------------------|
A|--4---4--x-4--------|---------------1----|--2---2--x-2---------|-------------------|
E|--------------------|--2---2--x-2--------|---------------------|--4---4--x-4-2-----|

G|--------------------|--------------------|---------------------|-------4-----4-----|
D|--------------4-----|--------------------|---------------1-----|----4h6-6-4h6-6----|
A|--4---4--x-4--------|---------------1----|--2---2--x-2---------|-------------------|
E|--------------------|--2---2-x-2---------|---------------------|--4----------------|

************************************

| x   Dead note
| g   Grace note
| (n) Ghost note
| h   Hammer-on
| p   Pull-off
| r   Release
| >   Accented note
| t   Tapping
| b   Bend
| br  Bend release
| pb  Pre-bend
| pbr Pre-bend release
| /   Slide up
| \   Slide down
| ~   Vibrato
| s   Slap
| P   Pop
| PM  Palm mute
| TR  Trill
| N   Tremolo

************************************

Almost there ...

Sign in to get your own page with links to favourite songs and more. You are just one click away...

Login with Facebook Login with Google