Log in

One click and you are in

Login with Facebook Login with Google

Why sign up and log in

Guitar Tabs Explorer
Phoenix bass tabs for J-boy

Bass tabs

Intro:
(0:11)
G|---------------------------------------------------------------------|
D|---------------------------------------------------------------------|
A|---------------------------------------------------------------------|
E|-1-1--1--1-1--1--1-1--1-1-3-3-3-3--1-1--1--1-1--1--1-1--1-1-3-3-3-3--|

G|---------------------------------------------------------------------|
D|---------------------------------------------------------------------|
A|-----------------------------------3-3--3--3-3--3-2------------------|
E|-1-1--1--1-1--1--1-1--1-1-3-3-3-3-------------------5-5-5--5--5-5-5--|
Verse 1:
(0:31)
G|---------------------------------------------------------------------|
D|---------------------------------------------------------------------|
A|---------------------------------------------------------------------|
E|-1-1--1--1-1--1--1-1--1-1-3-3-3-3--1-1--1--1-1--1--1-1--1-1-3-3-3-3--|
                                       (x2)
G|-------------------------------------------------------------|
D|-------------------------------------------------------------|
A|-----------------------------------3-3--3--3-3--3-2----------|
E|-1-1--1--1-1--1--1-1--1-1-3-3-3-3-------------------5-5-5-5--|


Chorus 1:
(1:09)
G|---------------------------------------------------------------------|
D|---------------------------------------------------------------------|
A|---------------------------------------------------------------------|
E|-1-1--1--1-1--1--1-1--1-1-3-3-3-3--1-1--1--1-1--1--1-1--1-1-3-3-3-3--|
                                       (x2)
G|-----------------------------------------------------------------|
D|-----------------------------------------------------------------|
A|-----------------------------------3-3--3--3-3--3-2--------------|
E|-1-1--1--1-1--1--1-1--1-1-3-3-3-3-------------------5-5-5-5-5-5--|

Verse 2:
(1:49)
G|---------------------------------------------------------------------|
D|---------------------------------------------------------------------|
A|---------------------------------------------------------------------|
E|-1-1--1--1-1--1--1-1--1-1-3-3-3-3--1-1--1--1-1--1--1-1--1-1-3-3-3-3--|
                                       (x2)
G|-------------------------------------------------------------|
D|-------------------------------------------------------------|
A|-----------------------------------3-3--3--3-3--3-2----------|
E|-1-1--1--1-1--1--1-1--1-1-3-3-3-3-------------------5-5-5-5--|


Chorus 2:
(2:28)
G|---------------------------------------------------------------------|
D|---------------------------------------------------------------------|
A|---------------------------------------------------------------------|
E|-1-1--1--1-1--1--1-1--1-1-3-3-3-3--1-1--1--1-1--1--1-1--1-1-3-3-3-3--|
                                       (x2)
G|-----------------------------------------------------------------|
D|-----------------------------------------------------------------|
A|-----------------------------------3-3--3--3-3--3-2--------------|
E|-1-1--1--1-1--1--1-1--1-1-3-3-3-3-------------------5-5-5-5-5-5--|


Bridge:
(3:08)
G|-----------------------------------------------------|
D|-----------------------------------------------------|  (x3)
A|-----------------------------------------------------|
E|-1-1-1--1-1--1-1-1--1-1--1-1-1--1-1-3-3-3-3-3-3-3-3--|

G|-------------------------------|
D|-------------------------------|
A|-3-3-3--3-3--3-3-3-2-----------|
E|---------------------5-5-5--5--|


Chorus 3:
(3:27)
G|---------------------------------------------------------------------|
D|---------------------------------------------------------------------|
A|---------------------------------------------------------------------|
E|-1-1--1--1-1--1--1-1--1-1-3-3-3-3--1-1--1--1-1--1--1-1--1-1-3-3-3-3--|
                                       (x2)
G|-----------------------------------------------------------------|
D|-----------------------------------------------------------------|
A|-----------------------------------3-3--3--3-3--3-2--------------|

Almost there ...

Sign in to get your own page with links to favourite songs and more. You are just one click away...

Login with Facebook Login with Google