Log in

One click and you are in

Login with Facebook Login with Google

Why sign up and log in

Guitar Tabs Explorer
Phoenix bass tabs for If i ever feel better

Bass tabs

Intro:
(0:16)
G|---------------------------------------|
D|---------------------------------------|
A|-5-5--4--7-7--5-5--4---/9-9-8-8-7-12\--|
E|---------------------2-----------------|
Verse 1:
(0:30)
G|-------------------------------------------------------------|
D|-------------------------------------------------------------| (x4)
A|-5-5---5-7-4--4-------------4---5-5---5-7-7--7-9-9--7-4-2-4--|
E|----------------2-2---2-2/5----------------------------------|


Chorus:
(1:03)
G|-------------------------------------7-------9-------11------------|
D|-------------------------------------------------------------------| (x2)
A|-----------------------------------5---5-6-7---7-8-9----7-8-9-12\--|
E|-2-2-2-2-2/7-7-7-7-5-5-5-5 5/10-9----------------------------------|

Pre-Verse:
(1:19)
G|---------------------------------------|
D|---------------------------------------|
A|-5-5--4--7-7--5-5--4---/9-9-8-8-7-12\--|
E|---------------------2-----------------|


Verse 2:
(1:35)
G|-------------------------------------------------------------|
D|-------------------------------------------------------------| (x2)
A|-5-5---5-7-4--4-------------4---5-5---5-7-7--7-9-9--7-4-2-4--|
E|----------------2-2---2-2/5----------------------------------|

Chorus 2:
(1:51)
G|-------------------------------------7-------9-------11------------|
D|-------------------------------------------------------------------| (x4)
A|-----------------------------------5---5-6-7---7-8-9----7-8-9-12\--|
E|-2-2-2-2-2/7-7-7-7-5-5-5-5 5/10-9----------------------------------|

Pre-Verse 2:
(2:23)
G|---------------------------------------|
D|---------------------------------------|
A|-5-5--4--7-7--5-5--4---/9-9-8-8-7-12\--|
E|---------------------2-----------------|


Verse 3:
(2:39)
G|-------------------------------------------------------------|
D|-------------------------------------------------------------| (x2)
A|-5-5---5-7-4--4-------------4---5-5---5-7-7--7-9-9--7-4-2-4--|
E|----------------2-2---2-2/5----------------------------------|


Chorus 3:
(2:55)
G|-------------------------------------7-------9-------11------------|
D|-------------------------------------------------------------------| (x11)
A|-----------------------------------5---5-6-7---7-8-9----7-8-9-12\--|
E|-2-2-2-2-2/7-7-7-7-5-5-5-5 5/10-9----------------------------------|

Almost there ...

Sign in to get your own page with links to favourite songs and more. You are just one click away...

Login with Facebook Login with Google