Log in

One click and you are in

Login with Facebook Login with Google

Why sign up and log in

Guitar Tabs Explorer
Phoenix tabs for Alone on christmas day

Guitar tabs

alone on christmas day


phoenix
TRANSCRIBED BY RUDY GUZMAN


guzman_84@hotmail.com


**note**
this song uses capo on the 7th fret
but just in case you dont have a capo there's gt1 or gt3,
the parts with capo are indicated in the tab *gt2*


  piano
e:-----------10--10-10-12-14--15-12-----------------14/15-12----|
B:-12--12-13-----10-10----------------13-----12-12-----------13-|
G:-12--12-12-----11-11--------12-12---12-14--12-12--12----12-12-|
D:-12--12-12-----12-12--------------0----14--12-12--------------|
A:-10--10-10---------------------------------10-10--------------|
E:--------------------------------------------------------------|


  verse *piano* gt1  when you find for some sad reason...              x2
e:------------------------------------------------------------------------|
B:----12-12---12-12-----12-12----12-12----12-12----12-12---12-12----12-12-|
G:----12-12---12-12-----12-12----12-12----12-12----12-12---12-12----12-12-|
D:----12-12---12-12-----12-12----12-12----12-12----12-12---12-12----12-12-|
A:-10-------9-------------------------------------------------------------|
E:-------------------12-------10--------8--------7-------8-------10-------|
  gt2 capo 7th freet
e:--------0-------0--------0--------0---------0--------0---------0-------0----|
B:------1-------1--------1--------1---------1--------1---------1-------1------|
G:----0-------0--------0--------0---------0--------0---------0-------0--------|
D:----------------------------------------------------------------------------|
A:-3--------2--------0--------------------------------------------------------|
E:----------------------------3---------1--------0---------1-------3----------|
  gt3
e:----------------------------------------------------------------------------------------|
B:----------12---------12----------12---------12--------12---------12-------12---------12-|
G:-------12---------12----------12---------12---------12--------12--------12--------12----|
D:----12---------12----------12---------12---------12--------12---------12-------12-------|
A:-10----------9--------------------------------------------------------------------------|
E:------------------------12----------10--------8----------7----------8-------10----------|

   when you love...
   gt1
e:-0--0-0--0-0-0--3--3-3--3-3-3-----------------------------|
B:-0--0-0--0-0-0--3--3-3--3-3-3--1--1-1--1-1-1--0--0-0-0-0--|
G:-0--0-0--0-0-0--0--0-0--0-0-0--0--0-0--0-0-0--2--2-2-2-2--|
D:-2--2-2--2-2-2--0--0-0--0-0-0--2--2-2--2-2-2--2--2-2-2-2--|
A:-2--2-2--2-2-2--0--0-0--0-0-0--3--3-3--3-3-3--0--0-0-0-0--|
E:-0--0-0--0-0-0--3--3-3--3-3-3-----------------------------|
   gt2 capo 7th freet
e:-0---0-0-0-0--0--0-0-0-0------------------------------|
B:-1---1-1-1-1--1--1-1-1-1------------------------------|
G:-0---0-0-0-0--0--0-0-0-0--2--2-2-2-2------------------|
D:-2---2-2-2-2--0--0-0-0-0--3--3-3-3-3---/7-5-----------|
A:-3---3-3-3-3--2--2-2-2-2--3--3-3-3-3---------8-7-5----|
E:--------------------------1--1-1-1-1---------------8\-|
   gt3
e:--------------------------------------------------------------------------|
B:-12--12-12-12-12--12--12-12-12-12-----------------------------------------|
G:-12--12-12-12-12--12--12-12-12-12--9---9--9--9--9-------------------------|
D:-12--12-12-12-12--12--12-12-12-12--10--10-10-10-10---/14-12---------------|
A:-10--10-10-10-10--9---9--9--9--9---10--10-10-10-10-----------15-14-12-----|
E:-----------------------------------8---8--8--8--8---------------------15\-|

   it sad i said
   gt1
e:------------------------------------------------------------------------|
B:-12-12-13-12--10-10-12-10--------12--------10-------------12--12-12-12--|
G:-12-12-12-12--11-11-11-11-----12--------12---------12-12--12--12-12-12--|
D:-12-12-12-12--12-12-12-12--10--------12--------10--12-12--12--12-12-12--|
A:-10-10-10-10--10-10-10-10--------------------------10-10--10--10-10-10--|
E:------------------------------------------------------------------------|
   gt2 capo 7th fret
e:----------------------------------------------------|
B:-5-5-6-5--3-3-5-3------5------3----------5--5-5-5-5-|
G:-5-5-5-5--4-4-4-4----5------5-------5-5--5--5-5-5-5-|
D:-5-5-5-5--5-5-5-5--3------5------3--5-5--5--5-5-5-5-|
A:-3-3-3-3--3-3-3-3-------------------3-3--3--3-3-3-3-|
E:----------------------------------------------------|

  why the sadness...
   gt1                    x3
e:-0--0--3-3-3-3-3-3-3-3------------------------------------|
B:-1--1--3-3-3-3-3-3-3-3------------------------------------|
G:-2--2--0-0-0-0-0-0-0-0------------------------------------|
D:-2--2--0-0-0-0-0-0-0-0------------------------------------|
A:-0--0--0-0-0-0-0-0-0-0------------------------------------|
E:-------3-3-3-3-3-3-3-3------------------------------------|

   gt1
e:---------------------------------------------------------|
B:-12--12--12--12--9--9------9--12\------------------------|
G:-12--12--12--12--9--9------9--12\------------------------|
D:-12--12--12--12--9--9--12--9--12\------------------------|
A:-10--10--9---9---7--7--12--7--10\------------------------|
E:-----------------------10--------------------------------|
   gt2 capo 7th fret
e:----------------------------|
B:-5--5--4--4--2--2-----2--5\-|
G:-5--5--4--4--2--2-----2--5\-|
D:-5--5--4--4--2--2--5--2--5\-|
A:-3--3--2--2--0--0--5--0--3\-|
E:-------------------3--------|

  time is...
  gt1
e:-0--0--3-3-3-3-3-3-3-3------------------------------------|
B:-1--1--3-3-3-3-3-3-3-3------------------------------------|
G:-2--2--0-0-0-0-0-0-0-0------------------------------------|
D:-2--2--0-0-0-0-0-0-0-0------------------------------------|
A:-0--0--0-0-0-0-0-0-0-0------------------------------------|
E:-------3-3-3-3-3-3-3-3------------------------------------|

   gt1
e:-------------------------------------------------------------------|
B:-12--12--12--9---------------------------12--12--12--9-------------|
G:-12--12--12--9---------------------------12--12--12--9---------9-9-|
D:-12--12--12--9---------------------------12--12--12--9---------9-9-|
A:-10--10--9---7---12-12-(12)/14-16-12-14--10--10--9---7--12-12--7-7-|
E:-----------------10-10-(10)/12-14-10-12-----------------10-10------|
   gt2 capo 7th fret
e:----------------------------------------------------|
B:-5--5--4--2--------------------5--5--4--2-----------|
G:-5--5--4--2--------------------5--5--4--2-------2-2-|
D:-5--5--4--2--------------------5--5--4--2-------2-2-|
A:-3--3--2--0--5-5--(5)/7-9-5-7--3--3--2--0--5-5--0-0-|
E:-------------3-3--(3)/5-7-3-5--------------3-3------|

  when you're crusin' the lonely highway...
   gt1
e:----------------------------------------------------------------------------------------|
B:----------12---------12----------12---------12--------12---------12-------12---------12-|
G:-------12---------12----------12---------12---------12--------12--------12--------12----|
D:----12---------12----------12---------12---------12--------12---------12-------12-------|
A:-10----------9--------------------------------------------------------------------------|
E:------------------------12----------10--------8----------7----------8-------10----------|
   gt2 capo 7th freet
e:--------0-------0--------0--------0---------0--------0---------0-------0----|
B:------1-------1--------1--------1---------1--------1---------1-------1------|
G:----0-------0--------0--------0---------0--------0---------0-------0--------|
D:----------------------------------------------------------------------------|
A:-3--------2--------0--------------------------------------------------------|
E:----------------------------3---------1--------0---------1-------3----------|

  when you see some happy...
   gt1
e:-0--0-0--0-0-0--3--3-3--3-3-3-----------------------------|
B:-0--0-0--0-0-0--3--3-3--3-3-3--1--1-1--1-1-1--0--0-0-0-0--|
G:-0--0-0--0-0-0--0--0-0--0-0-0--0--0-0--0-0-0--2--2-2-2-2--|
D:-2--2-2--2-2-2--0--0-0--0-0-0--2--2-2--2-2-2--2--2-2-2-2--|
A:-2--2-2--2-2-2--0--0-0--0-0-0--3--3-3--3-3-3--0--0-0-0-0--|
E:-0--0-0--0-0-0--3--3-3--3-3-3-----------------------------|
   gt2 capo 7th freet
e:-0---0-0-0-0--0--0-0-0-0------------------------------|
B:-1---1-1-1-1--1--1-1-1-1------------------------------|
G:-0---0-0-0-0--0--0-0-0-0--2--2-2-2-2------------------|
D:-2---2-2-2-2--0--0-0-0-0--3--3-3-3-3---/7-5-----------|
A:-3---3-3-3-3--2--2-2-2-2--3--3-3-3-3---------8-7-5----|
E:--------------------------1--1-1-1-1---------------8\-|
   gt3
e:--------------------------------------------------------------------------|
B:-12--12-12-12-12--12--12-12-12-12-----------------------------------------|
G:-12--12-12-12-12--12--12-12-12-12--9---9--9--9--9-------------------------|
D:-12--12-12-12-12--12--12-12-12-12--10--10-10-10-10---/14-12---------------|
A:-10--10-10-10-10--9---9--9--9--9---10--10-10-10-10-----------15-14-12-----|
E:-----------------------------------8---8--8--8--8---------------------15\-|

  it still for real...
   gt1
e:------------------------------------------------------------------------|
B:-12-12-13-12--10-10-12-10--------12--------10-------------12--12-12-12--|
G:-12-12-12-12--11-11-11-11-----12--------12---------12-12--12--12-12-12--|
D:-12-12-12-12--12-12-12-12--10--------12--------10--12-12--12--12-12-12--|
A:-10-10-10-10--10-10-10-10--------------------------10-10--10--10-10-10--|
E:------------------------------------------------------------------------|
   gt2 capo 7th fret
e:----------------------------------------------------|
B:-5-5-6-5--3-3-5-3------5------3----------5--5-5-5-5-|
G:-5-5-5-5--4-4-4-4----5------5-------5-5--5--5-5-5-5-|
D:-5-5-5-5--5-5-5-5--3------5------3--5-5--5--5-5-5-5-|
A:-3-3-3-3--3-3-3-3-------------------3-3--3--3-3-3-3-|
E:----------------------------------------------------|

  why the sadness
  gt1                    x3
e:-0--0--3-3-3-3-3-3-3-3------------------------------------|
B:-1--1--3-3-3-3-3-3-3-3------------------------------------|
G:-2--2--0-0-0-0-0-0-0-0------------------------------------|
D:-2--2--0-0-0-0-0-0-0-0------------------------------------|
A:-0--0--0-0-0-0-0-0-0-0------------------------------------|
E:-------3-3-3-3-3-3-3-3------------------------------------|

   gt1
e:---------------------------------------------------------|
B:-12--12--12--12--9--9------9--12\------------------------|
G:-12--12--12--12--9--9------9--12\------------------------|
D:-12--12--12--12--9--9--12--9--12\------------------------|
A:-10--10--9---9---7--7--12--7--10\------------------------|
E:-----------------------10--------------------------------|
   gt2 capo 7th fret
e:----------------------------|
B:-5--5--4--4--2--2-----2--5\-|
G:-5--5--4--4--2--2-----2--5\-|
D:-5--5--4--4--2--2--5--2--5\-|
A:-3--3--2--2--0--0--5--0--3\-|
E:-------------------3--------|

   time is...           x3
e:-0--0--3-3-3-3-3-3-3-3------------------------------------|
B:-1--1--3-3-3-3-3-3-3-3------------------------------------|
G:-2--2--0-0-0-0-0-0-0-0------------------------------------|
D:-2--2--0-0-0-0-0-0-0-0------------------------------------|
A:-0--0--0-0-0-0-0-0-0-0------------------------------------|
E:-------3-3-3-3-3-3-3-3------------------------------------|

   gt1
e:-------------------------------------------------------------------|
B:-12--12--12--9---------------------------12--12--12--9-------------|
G:-12--12--12--9---------------------------12--12--12--9---------9-9-|
D:-12--12--12--9---------------------------12--12--12--9---------9-9-|
A:-10--10--9---7---12-12-(12)/14-16-12-14--10--10--9---7--12-12--7-7-|
E:-----------------10-10-(10)/12-14-10-12-----------------10-10------|
   gt2 capo 7th fret
e:----------------------------------------------------|
B:-5--5--4--2--------------------5--5--4--2-----------|
G:-5--5--4--2--------------------5--5--4--2-------2-2-|
D:-5--5--4--2--------------------5--5--4--2-------2-2-|
A:-3--3--2--0--5-5--(5)/7-9-5-7--3--3--2--0--5-5--0-0-|
E:-------------3-3--(3)/5-7-3-5--------------3-3------|




hillo son mex

Other versions of Alone On Christmas Day

Alone on Christmas DayChords

Almost there ...

Sign in to get your own page with links to favourite songs and more. You are just one click away...

Login with Facebook Login with Google