Log in

One click and you are in

Login with Facebook Login with Google

Why sign up and log in

Guitar Tabs Explorer
Phish tabs for Stash

Guitar tabs with lyrics

with SMTP id <AA14714>; Sat, 11 Sep 1993 08:53:25 -0700
  (5.65c/IDA-1.4.4 for jamesb@nevada.edu); Sat, 11 Sep 1993 11:31:04 -0400


                              Stash

                by: Phish from "A Picture Of Nectar"
 Intro Riff:
                                                         lr
|------------------------------------------------------------|
|--------------------------------------------------------15--|
|----------12-13---12--------------------12-15---13/14-------|
|-12-14-15------------15---14---12\11-14---------------------|
|------------------------------------------------------------|
|------------------------------------------------------------|

 Riff 1A                                lr      .      lr
|---------------------------------------10--------------------------|
|----------------------------8---9---10-------X-10-X-6/8~~----X-(6)-|
|---7-------7---9---10----------------------------------------------|
|-7---7\6/7---7---7----7\6/7---7---7--------------------------------|
|-------------------------------------------------------------------|
|-------------------------------------------------------------------|

 Riff 1B                                lr
|---------------------------------------10--------------------------|
|----------------------------8---9---10-------X-10-6-------8---6----|
|---7-------7---9---10-----------------------------------7---7---7\-|
|-7---7\6/7---7---7----7\6/7---7---7--------------------------------|
|-------------------------------------------------------------------|
|-------------------------------------------------------------------|
 Riff 2A                               Riff 2B

|------*10-12-13-12-------------------|-12-13-12----------------10-|
|---*12-------------14-11-------10----|----------14-11-------10----|
|*14----------------------12-13-------|----------------12-13-------|
|----------------------------------12-|----------------------------|
|-------------------------------------|----------------------------|
|-------------------------------------|----------------------------|

 Ending to Riff 2 sequence
  lr----|   lr---|
|-----10-----------------------------|
|-/10-------10-----------------------|
|--------------10-------12----10-----|
|--------------------12----12----12\-|
|------------------------------------|
|------------------------------------|

 Riff 3
  "."
|------------------------------------------------|
|------------------------------------------------|
|----------------12----------14-12-11-12-13-14~~-|
|-12---11--11-14----15-12-15---------------------|
|------------------------------------------------|
|------------------------------------------------|

|---------------------------------------------|
|---------------------------------------------|
|----------------12----------14-13-12---------|
|-12---11--11-14----15-12-15----------15-14~~-|
|---------------------------------------------|
|---------------------------------------------|



Verse Riff ,finger plucked (this is basic, expand on it)
|------------------------------|
|-8--8--8--8--8--6--6--6--6--6-|
|-7--7--7--7--7--5--5--5--5--5-|
|------------------------------|
|-7--7--7--7--7--5--5--5--5--5-|
|------------------------------|


        pulling   the   pavement   from   ...


|---------------------------------|
|.-------------------------------.|
|.-------------------------------.|
|--------7---6-7---------7---6-7--|
|--8---7-----------7---5----------|
|---------------------------------|


|----------------------------------------|
|---10\---10\----------------------------|
|-------------8-9-8-7------8-9-8-7-------|
|-7-----7-------------10-9---------10-9--|
|----------------------------------------|
|----------------------------------------|

|------------------------------------------------|
|---10\---10\-----9-7-------------9-7--------7-8-|
|---------------9-----8-9-10----9-----8-9-10-----|
|-7-----7-----7---------------7------------------|
|------------------------------------------------|
|------------------------------------------------|

(repeat above riffs in different keys, listen to song)

        smegma, dogmatagram, ....


        control for smilers can't ....(fade on this and inprovise)


KEY:
~           vibrato
lr          let ring
/           slide up
\           slide down
X           picked muted string or strings
*           pick-up notes
(#)         ghost note
.           staccato
b           bend
hb          half bend
tr          trill
p           pull-off
h           hammer-on


                 rlf2@lehigh.edu

**END**

Almost there ...

Sign in to get your own page with links to favourite songs and more. You are just one click away...

Login with Facebook Login with Google