Log in

One click and you are in

Login with Facebook Login with Google

Why sign up and log in

Guitar Tabs Explorer
Phish tabs for Mikes groove

Guitar tabs

BAND :  PHiSH

                =======================================
		===========MIKE'S GROOVE===============
                =======================================

[Mike's Song, I am Hydrogen, Weekapaug Groove]

By PHISH

Here's my complete version of all three songs, usually played
together at concerts in the order I will transcribe them.  Thanks a
lot to kcjonz@wam.umd.edu for two of the three songs.. I uploaded the
chords to I A chord diagramA minorAm Hydrogen, and saw the other two up there, and figured
I'd make it into one file entry.  I play them together, because they
go together.  Here they are:
Mike's Song    |


Intro Riff, repeat through verse

      A chord diagramC# minorC#m                            A chord diagramD MajorD        A chord diagramA augmentedA
A chord diagramE MajorE|-----------------------------|----------------------------
A chord diagramBB|-----------------------------|-10--10-10---10-------------
A chord diagramG+G|--------------------------9--|-11--11-11----9-------------
A chord diagramD MajorD|---------------------9-11----|-12--12-12---11-------------
A chord diagramA augmentedA|----------9--9-10-11---------|----------------------------
A chord diagramE MajorE|-9-9-12----------------------|----------------------------

        ^Verses start on this note

     A chord diagramC# minorC#m               A chord diagramD MajorD                 A chord diagramA augmentedA
Trapped in time and I ...
     A chord diagramC# minorC#m                     A chord diagramD MajorD              A chord diagramA augmentedA
These friends of mine, I can ....
     A chord diagramC# minorC#m                    A chord diagramD MajorD             A chord diagramA augmentedA
You don't gotta tell me and I ...
     A chord diagramC# minorC#m                     A chord diagramD MajorD           A chord diagramA augmentedA
'Cause I'm sittin' back here ...

   A chord diagramE MajorE
   trill + 2  +  3  +  4 +
A chord diagramE MajorE|--------------------------|
A chord diagramBB|--------------------------|
A chord diagramG+G|--------------------------|
A chord diagramD MajorD|--------------------------|
A chord diagramA augmentedA|9-11-^^^^^^^^^^^^^^^^-----|
A chord diagramE MajorE|---------------------12---|

       H-O   P-O  S\                     H-O   P-O  S\
A chord diagramE MajorE|---------------------------------|-----------------------------|
A chord diagramBB|-9-9-9-10-10-9-9-7-----7-----12--|-9-9-9-10-10-9-9-7-7-12------|
A chord diagramG+G|-9-9-9--9--9-9-9-7-----7-----11--|-9-9-9--9--9-9-9-7-7-11------|
A chord diagramD MajorD|-9-9-9-11-11-9-9-7-----7-----13--|-9-9-9-11-11-9-9-7-7-13------|
A chord diagramA augmentedA|---------------------------------|-----------------------------|
A chord diagramE MajorE|---------------------------------|-----------------------------|
            [Trey] Me no are no nice ....
                       [Paige]Me no are no ...
       H-O   P-O  S\                     H-O   P-O  S\
A chord diagramE MajorE|---------------------------------|--------------------7---8----|
A chord diagramBB|-9-9-9-10-10-9-9-7-----7-----12--|-9-9-9-10-10-9-9-7-x7-x-8----|
A chord diagramG+G|-9-9-9--9--9-9-9-7-----7-----11--|-9-9-9--9--9-9-9-7-x8-x-8----|
A chord diagramD MajorD|-9-9-9-11-11-9-9-7-----7-----13--|-9-9-9-11-11-9-9-7-x9-x10----|
A chord diagramA augmentedA|---------------------------------|--------------------9--10----|
A chord diagramE MajorE|---------------------------------|--------------------7---8----|
            [Trey] Me no ....[Mike] I-i-i...
                       [Paige]Me no are ...

 [same chords as earlier]

...walk through the hallways .....

Me no are no ....(x3)

Then go stacatto between these two chord formations :

A chord diagramE MajorE|-------|
A chord diagramBB|---9-7-|
A chord diagramG+G|---9-7-|
A chord diagramD MajorD|---9-7-|
A chord diagramA augmentedA|-------|
A chord diagramE MajorE|-------|

Then back to the "me no are no nice guys" riff, then back to the
stacatto chords, then switch over to :

A chord diagramF#m7F#m7 --> A chord diagramBB   back and forth for a LONG time
A chord diagramD MajorD A chord diagramE MajorE A chord diagramF#m7F#m7 a couple of times, back to A chord diagramF#m7F#m7 --> A chord diagramBB then
A chord diagramD MajorD A chord diagramE MajorE A chord diagramF#m7F#m7 twice, then the 12-tone chromatic walkdown from F#-& to
|A chord diagramF#m7F#m7 A chord diagramA augmentedA A chord diagramE MajorE A chord diagramFF :| repeaded 8 times, stopping on the A chord diagramE MajorE and letting it
ring on the last time.


I am Hydrogen     |


Background alternating between A chord diagramE MajorE and A chord diagramA augmentedA chords.


After a few bars of alternating between the chords A chord diagramFF
and A chord diagramBB ...

    A chord diagramA augmentedA                       A chord diagramE MajorE

E------9---------9-7--------7-----------------------
B---------------------10--9----10--9-7--------------
G---9--------9----------------------------9---------
D---------------------------------------------------
A---------------------------------------------------
E---------------------------------------------------

   A chord diagramA augmentedA                         A chord diagramE MajorE

E------9---------9-7------------------
B---------------------10--9-----------
G------------9----------------9-------
D-------------------------------------
A-------------------------------------
E-------------------------------------

The above repeats a couple of times before going onto
this:

     A chord diagramA augmentedA                           A chord diagramE MajorE
E----(7)-9-----7--9-12-----9-12-14----12-14-13------
B---------------------------------------------------
G---9-----------------------------------------------
D---------------------------------------------------
A---------------------------------------------------
E---------------------------------------------------
          A chord diagramA augmentedA                    A chord diagramE MajorE
E--14-16-17----16-17-19-17-16-12--------------------
B---------------------------------------------------
G---------------------------------------------------
D---------------------------------------------------
A---------------------------------------------------
E---------------------------------------------------


Then back to the first part a couple more times

After that, it goes something like this :

E----(7)--9----7--9-7--------9---------9-12-11-12---
B---------------------10--9---------9---------------
G--9------------------------------------------------
D---------------------------------------------------
A---------------------------------------------------
E---------------------------------------------------

E-14-12-11--9-12-11--9------------------------------
B----------------------12---------------------------
G---------------------------------------------------
D---------------------------------------------------
A---------------------------------------------------
E---------------------------------------------------

Then comes a bunch of ascending scales alternating
between Paige and Trey, but I couldn't get those down.
After that, hit an A chord diagramE MajorE chord and let it ring into Weekapaug...


Weekapaug Groove|


A chord diagramE MajorE|----------------------------------------------------|
A chord diagramBB|-7-7-7-8-8-7-7-5--5--8------------------------------|
A chord diagramG+G|-7-7-7-7-7-7-7-5--5--7------------------------------|
A chord diagramD MajorD|-7-7-7-9-9-7-7-5--5--9------------------------------|
A chord diagramA augmentedA|--9-9------------------7-9--------------------------|
A chord diagramE MajorE|----------------------------------------------------|

Tryin' to make a woman match .....



  That's it.


| Emil Hedaya, AKRR70B@PRODIGY.COM | K12GNHHE@VAXC.HOFSTRA.EDU |
| "You can feel good about Hood!"  | "Been you to have any     |
|__________________________________|__spice, man "_____________|

Almost there ...

Sign in to get your own page with links to favourite songs and more. You are just one click away...

Login with Facebook Login with Google